  0
SECTION
  2
HEADER
  9
$ACADVER
  1
AC1024
  9
$ACADMAINTVER
 70
     6
  9
$DWGCODEPAGE
  3
ANSI_1252
  9
$INSBASE
 10
0.0
 20
0.0
 30
0.0
  9
$EXTMIN
 10
-20563.7901749
 20
-20428.5032842
 30
0.0
  9
$EXTMAX
 10
3026657.58962
 20
3023372.45251
 30
0.0
  9
$LIMMIN
 10
-20563.7901749
 20
-20428.5032842
  9
$LIMMAX
 10
3026657.58962
 20
3023372.45251
  9
$ORTHOMODE
 70
     0
  9
$REGENMODE
 70
     1
  9
$FILLMODE
 70
     1
  9
$QTEXTMODE
 70
     0
  9
$MIRRTEXT
 70
     1
  9
$LTSCALE
 40
1.0
  9
$ATTMODE
 70
     1
  9
$TEXTSIZE
 40
2.5
  9
$TRACEWID
 40
1.0
  9
$TEXTSTYLE
  7
Standard
  9
$CLAYER
  8
Outline
  9
$CELTYPE
  6
ByLayer
  9
$CECOLOR
 62
   256
  9
$CELTSCALE
 40
1.0
  9
$DISPSILH
 70
     0
  9
$DIMSCALE
 40
1.0
  9
$DIMASZ
 40
2.5
  9
$DIMEXO
 40
0.625
  9
$DIMDLI
 40
3.75
  9
$DIMRND
 40
0.0
  9
$DIMDLE
 40
0.0
  9
$DIMEXE
 40
1.25
  9
$DIMTP
 40
0.0
  9
$DIMTM
 40
0.0
  9
$DIMTXT
 40
2.5
  9
$DIMCEN
 40
2.5
  9
$DIMTSZ
 40
0.0
  9
$DIMTOL
 70
     0
  9
$DIMLIM
 70
     0
  9
$DIMTIH
 70
     0
  9
$DIMTOH
 70
     0
  9
$DIMSE1
 70
     0
  9
$DIMSE2
 70
     0
  9
$DIMTAD
 70
     1
  9
$DIMZIN
 70
     8
  9
$DIMBLK
  1

  9
$DIMASO
 70
     1
  9
$DIMSHO
 70
     1
  9
$DIMPOST
  1

  9
$DIMAPOST
  1

  9
$DIMALT
 70
     0
  9
$DIMALTD
 70
     3
  9
$DIMALTF
 40
0.03937007874016
  9
$DIMLFAC
 40
1.0
  9
$DIMTOFL
 70
     1
  9
$DIMTVP
 40
0.0
  9
$DIMTIX
 70
     0
  9
$DIMSOXD
 70
     0
  9
$DIMSAH
 70
     0
  9
$DIMBLK1
  1

  9
$DIMBLK2
  1

  9
$DIMSTYLE
  2
ISO-25
  9
$DIMCLRD
 70
     0
  9
$DIMCLRE
 70
     0
  9
$DIMCLRT
 70
     0
  9
$DIMTFAC
 40
1.0
  9
$DIMGAP
 40
0.625
  9
$DIMJUST
 70
     0
  9
$DIMSD1
 70
     0
  9
$DIMSD2
 70
     0
  9
$DIMTOLJ
 70
     0
  9
$DIMTZIN
 70
     8
  9
$DIMALTZ
 70
     0
  9
$DIMALTTZ
 70
     0
  9
$DIMUPT
 70
     0
  9
$DIMDEC
 70
     2
  9
$DIMTDEC
 70
     2
  9
$DIMALTU
 70
     2
  9
$DIMALTTD
 70
     3
  9
$DIMTXSTY
  7
Standard
  9
$DIMAUNIT
 70
     0
  9
$DIMADEC
 70
     0
  9
$DIMALTRND
 40
0.0
  9
$DIMAZIN
 70
     0
  9
$DIMDSEP
 70
    44
  9
$DIMATFIT
 70
     3
  9
$DIMFRAC
 70
     0
  9
$DIMLDRBLK
  1

  9
$DIMLUNIT
 70
     2
  9
$DIMLWD
 70
    -2
  9
$DIMLWE
 70
    -2
  9
$DIMTMOVE
 70
     0
  9
$DIMFXL
 40
1.0
  9
$DIMFXLON
 70
     0
  9
$DIMJOGANG
 40
0.7853981633974483
  9
$DIMTFILL
 70
     0
  9
$DIMTFILLCLR
 70
     0
  9
$DIMARCSYM
 70
     0
  9
$DIMLTYPE
  6

  9
$DIMLTEX1
  6

  9
$DIMLTEX2
  6

  9
$DIMTXTDIRECTION
 70
     0
  9
$LUNITS
 70
     2
  9
$LUPREC
 70
     4
  9
$SKETCHINC
 40
1.0
  9
$FILLETRAD
 40
10.0
  9
$AUNITS
 70
     0
  9
$AUPREC
 70
     0
  9
$MENU
  1
.
  9
$ELEVATION
 40
0.0
  9
$PELEVATION
 40
0.0
  9
$THICKNESS
 40
0.0
  9
$LIMCHECK
 70
     0
  9
$CHAMFERA
 40
10.0
  9
$CHAMFERB
 40
10.0
  9
$CHAMFERC
 40
20.0
  9
$CHAMFERD
 40
0.0
  9
$SKPOLY
 70
     0
  9
$TDCREATE
 40
2456231.748506945
  9
$TDUCREATE
 40
2456231.373506945
  9
$TDUPDATE
 40
2456231.748506945
  9
$TDUUPDATE
 40
2456231.373506945
  9
$TDINDWG
 40
0.0000000116
  9
$TDUSRTIMER
 40
0.0000000116
  9
$USRTIMER
 70
     1
  9
$ANGBASE
 50
0.0
  9
$ANGDIR
 70
     0
  9
$PDMODE
 70
     0
  9
$PDSIZE
 40
0.0
  9
$PLINEWID
 40
0.0
  9
$SPLFRAME
 70
     0
  9
$SPLINETYPE
 70
     6
  9
$SPLINESEGS
 70
     8
  9
$HANDSEED
  5
6F
  9
$SURFTAB1
 70
     6
  9
$SURFTAB2
 70
     6
  9
$SURFTYPE
 70
     6
  9
$SURFU
 70
     6
  9
$SURFV
 70
     6
  9
$UCSBASE
  2

  9
$UCSNAME
  2

  9
$UCSORG
 10
0.0
 20
0.0
 30
0.0
  9
$UCSXDIR
 10
1.0
 20
0.0
 30
0.0
  9
$UCSYDIR
 10
0.0
 20
1.0
 30
0.0
  9
$UCSORTHOREF
  2

  9
$UCSORTHOVIEW
 70
     0
  9
$UCSORGTOP
 10
0.0
 20
0.0
 30
0.0
  9
$UCSORGBOTTOM
 10
0.0
 20
0.0
 30
0.0
  9
$UCSORGLEFT
 10
0.0
 20
0.0
 30
0.0
  9
$UCSORGRIGHT
 10
0.0
 20
0.0
 30
0.0
  9
$UCSORGFRONT
 10
0.0
 20
0.0
 30
0.0
  9
$UCSORGBACK
 10
0.0
 20
0.0
 30
0.0
  9
$PUCSBASE
  2

  9
$PUCSNAME
  2

  9
$PUCSORG
 10
0.0
 20
0.0
 30
0.0
  9
$PUCSXDIR
 10
1.0
 20
0.0
 30
0.0
  9
$PUCSYDIR
 10
0.0
 20
1.0
 30
0.0
  9
$PUCSORTHOREF
  2

  9
$PUCSORTHOVIEW
 70
     0
  9
$PUCSORGTOP
 10
0.0
 20
0.0
 30
0.0
  9
$PUCSORGBOTTOM
 10
0.0
 20
0.0
 30
0.0
  9
$PUCSORGLEFT
 10
0.0
 20
0.0
 30
0.0
  9
$PUCSORGRIGHT
 10
0.0
 20
0.0
 30
0.0
  9
$PUCSORGFRONT
 10
0.0
 20
0.0
 30
0.0
  9
$PUCSORGBACK
 10
0.0
 20
0.0
 30
0.0
  9
$USERI1
 70
     0
  9
$USERI2
 70
     0
  9
$USERI3
 70
     0
  9
$USERI4
 70
     0
  9
$USERI5
 70
     0
  9
$USERR1
 40
0.0
  9
$USERR2
 40
0.0
  9
$USERR3
 40
0.0
  9
$USERR4
 40
0.0
  9
$USERR5
 40
0.0
  9
$WORLDVIEW
 70
     1
  9
$SHADEDGE
 70
     3
  9
$SHADEDIF
 70
    70
  9
$TILEMODE
 70
     1
  9
$MAXACTVP
 70
    64
  9
$PINSBASE
 10
0.0
 20
0.0
 30
0.0
  9
$PLIMCHECK
 70
     0
  9
$PEXTMIN
 10
1.000000000000000E+20
 20
1.000000000000000E+20
 30
1.000000000000000E+20
  9
$PEXTMAX
 10
-1.000000000000000E+20
 20
-1.000000000000000E+20
 30
-1.000000000000000E+20
  9
$PLIMMIN
 10
0.0
 20
0.0
  9
$PLIMMAX
 10
420.0
 20
297.0
  9
$UNITMODE
 70
     0
  9
$VISRETAIN
 70
     1
  9
$PLINEGEN
 70
     0
  9
$PSLTSCALE
 70
     1
  9
$TREEDEPTH
 70
  3020
  9
$CMLSTYLE
  2
Standard
  9
$CMLJUST
 70
     0
  9
$CMLSCALE
 40
20.0
  9
$PROXYGRAPHICS
 70
     1
  9
$MEASUREMENT
 70
     1
  9
$CELWEIGHT
370
    -1
  9
$ENDCAPS
280
     0
  9
$JOINSTYLE
280
     0
  9
$LWDISPLAY
290
     0
  9
$INSUNITS
 70
     4
  9
$HYPERLINKBASE
  1

  9
$STYLESHEET
  1

  9
$XEDIT
290
     1
  9
$CEPSNTYPE
380
     0
  9
$PSTYLEMODE
290
     1
  9
$FINGERPRINTGUID
  2
{92905EEA-4798-D3AF-0738-BBE039DCC74E}
  9
$VERSIONGUID
  2
{FAEB1C32-E019-11D5-929B-00C0DF256EC4}
  9
$EXTNAMES
290
     1
  9
$PSVPSCALE
 40
0.0
  9
$OLESTARTUP
290
     0
  9
$SORTENTS
280
   127
  9
$INDEXCTL
280
     0
  9
$HIDETEXT
280
     1
  9
$XCLIPFRAME
280
     2
  9
$HALOGAP
280
     0
  9
$OBSCOLOR
 70
   257
  9
$OBSLTYPE
280
     0
  9
$INTERSECTIONDISPLAY
280
     0
  9
$INTERSECTIONCOLOR
 70
   257
  9
$DIMASSOC
280
     2
  9
$PROJECTNAME
  1

  9
$CAMERADISPLAY
290
     0
  9
$LENSLENGTH
 40
50.0
  9
$CAMERAHEIGHT
 40
0.0
  9
$STEPSPERSEC
 40
2.0
  9
$STEPSIZE
 40
6.0
  9
$3DDWFPREC
 40
2.0
  9
$PSOLWIDTH
 40
5.0
  9
$PSOLHEIGHT
 40
80.0
  9
$LOFTANG1
 40
1.570796326794897
  9
$LOFTANG2
 40
1.570796326794897
  9
$LOFTMAG1
 40
0.0
  9
$LOFTMAG2
 40
0.0
  9
$LOFTPARAM
 70
     7
  9
$LOFTNORMALS
280
     1
  9
$LATITUDE
 40
37.795
  9
$LONGITUDE
 40
-122.394
  9
$NORTHDIRECTION
 40
0.0
  9
$TIMEZONE
 70
 -8000
  9
$LIGHTGLYPHDISPLAY
280
     1
  9
$TILEMODELIGHTSYNCH
280
     1
  9
$CMATERIAL
347
3C
  9
$SOLIDHIST
280
     1
  9
$SHOWHIST
280
     1
  9
$DWFFRAME
280
     2
  9
$DGNFRAME
280
     2
  9
$REALWORLDSCALE
290
     1
  9
$INTERFERECOLOR
 62
   256
  9
$CSHADOW
280
     0
  9
$SHADOWPLANELOCATION
 40
0.0
  0
ENDSEC
  0
SECTION
  2
CLASSES
  0
CLASS
  1
ACDBDICTIONARYWDFLT
  2
AcDbDictionaryWithDefault
  3
ObjectDBX Classes
 90
        0
 91
        4
280
     0
281
     0
  0
CLASS
  1
VISUALSTYLE
  2
AcDbVisualStyle
  3
ObjectDBX Classes
 90
     4095
 91
        4
280
     0
281
     0
  0
CLASS
  1
MATERIAL
  2
AcDbMaterial
  3
ObjectDBX Classes
 90
     1153
 91
        4
280
     0
281
     0
  0
CLASS
  1
SUN
  2
AcDbSun
  3
SCENEOE
 90
     1024
 91
        4
280
     0
281
     0
  0
ENDSEC
  0
SECTION
  2
TABLES
  0
TABLE
  2
VPORT
  5
8
330
0
100
AcDbSymbolTable
 70
     1
  0
VPORT
  5
29
330
8
100
AcDbSymbolTableRecord
100
AcDbViewportTableRecord
  2
*Active
 70
     0
 10
0.0
 20
0.0
 11
1.0
 21
1.0
 12
360.5069142256372
 22
77.37740091485402
 13
0.0
 23
0.0
 14
10.0
 24
10.0
 15
10.0
 25
10.0
 16
0.0
 26
0.0
 36
1.0
 17
0.0
 27
0.0
 37
0.0
 40
643.00113180099
 41
2.116173120728929
 42
50.0
 43
0.0
 44
0.0
 50
0.0
 51
0.0
 71
     0
 72
   100
 73
     1
 74
     3
 75
     0
 76
     0
 77
     0
 78
     0
281
     0
 65
     1
110
0.0
120
0.0
130
0.0
111
1.0
121
0.0
131
0.0
112
0.0
122
1.0
132
0.0
 79
     0
146
0.0
 60
     3
 61
     5
292
     1
282
     1
141
0.0
142
0.0
 63
   250
361
3F
  0
ENDTAB
  0
TABLE
  2
LTYPE
  5
5
330
0
100
AcDbSymbolTable
 70
     7
  0
LTYPE
  5
14
330
5
100
AcDbSymbolTableRecord
100
AcDbLinetypeTableRecord
  2
ByBlock
 70
     0
  3

 72
    65
 73
     0
 40
0.0
  0
LTYPE
  5
15
330
5
100
AcDbSymbolTableRecord
100
AcDbLinetypeTableRecord
  2
ByLayer
 70
     0
  3

 72
    65
 73
     0
 40
0.0
  0
LTYPE
  5
16
330
5
100
AcDbSymbolTableRecord
100
AcDbLinetypeTableRecord
  2
Continuous
 70
     0
  3
Solid line
 72
    65
 73
     0
 40
0.0
  0
LTYPE
  5
40
330
5
100
AcDbSymbolTableRecord
100
AcDbLinetypeTableRecord
  2
DOT
 70
     0
  3
Dot . . . . . . . . . . . . . . . . . . . . . . . .
 72
    65
 73
     2
 40
2.032
 49
1.016
 74
     0
 49
-1.016
 74
     0
  0
LTYPE
  5
41
330
5
100
AcDbSymbolTableRecord
100
AcDbLinetypeTableRecord
  2
CENTER
 70
     0
  3
Center ____ _ ____ _ ____ _ ____ _ ____ _ ____
 72
    65
 73
     4
 40
13.208
 49
8.128
 74
     0
 49
-1.524
 74
     0
 49
2.032
 74
     0
 49
-1.524
 74
     0
  0
LTYPE
  5
42
330
5
100
AcDbSymbolTableRecord
100
AcDbLinetypeTableRecord
  2
HIDDEN2
 70
     0
  3
Hidden (.5x) _ _ _ _ _ _ _ _ _ _ _ _ _ _ _ _ _
 72
    65
 73
     2
 40
4.762499999999999
 49
3.175
 74
     0
 49
-1.5875
 74
     0
  0
LTYPE
  5
43
330
5
100
AcDbSymbolTableRecord
100
AcDbLinetypeTableRecord
  2
DASHED
 70
     0
  3
Dashed __ __ __ __ __ __ __ __ __ __ __ __ __ _
 72
    65
 73
     2
 40
9.652
 49
8.128
 74
     0
 49
-1.524
 74
     0
  0
LTYPE
  5
44
330
5
100
AcDbSymbolTableRecord
100
AcDbLinetypeTableRecord
  2
PHANTOM2
 70
     0
  3
Phantom (.5x) ___ _ _ ___ _ _ ___ _ _ ___ _ _
 72
    65
 73
     6
 40
14.732
 49
8.128
 74
     0
 49
-1.524
 74
     0
 49
1.016
 74
     0
 49
-1.524
 74
     0
 49
1.016
 74
     0
 49
-1.524
 74
     0
  0
LTYPE
  5
45
330
5
100
AcDbSymbolTableRecord
100
AcDbLinetypeTableRecord
  2
DASHDOT
 70
     0
  3
Dash dot __ . __ . __ . __ . __ . __ . __ . __
 72
    65
 73
     4
 40
11.176
 49
8.128
 74
     0
 49
-1.524
 74
     0
 49
0.0
 74
     0
 49
-1.524
 74
     0
  0
ENDTAB
  0
TABLE
  2
LAYER
  5
2
330
0
100
AcDbSymbolTable
 70
     7
  0
LAYER
  5
10
330
2
100
AcDbSymbolTableRecord
100
AcDbLayerTableRecord
  2
0
 70
     0
 62
     5
  6
Continuous
370
    -3
390
F
347
3E
  0
LAYER
  5
46
330
2
100
AcDbSymbolTableRecord
100
AcDbLayerTableRecord
  2
Default
 70
     0
 62
     255
  6
Continuous
370
    -3
390
F
347
3E
  0
LAYER
  5
78
330
2
100
AcDbSymbolTableRecord
100
AcDbLayerTableRecord
  2
Mirrors
 70
0
 62
255
  6
Continuous
370
    -3
390
F
347
3E
  0
LAYER
  5
b0
330
2
100
AcDbSymbolTableRecord
100
AcDbLayerTableRecord
  2
text
 70
0
 62
255
  6
Continuous
370
    -3
390
F
347
3E
  0
LAYER
  5
16a
330
2
100
AcDbSymbolTableRecord
100
AcDbLayerTableRecord
  2
main_beam
 70
0
 62
1
  6
Continuous
370
    -3
390
F
347
3E
  0
LAYER
  5
19f
330
2
100
AcDbSymbolTableRecord
100
AcDbLayerTableRecord
  2
aux_beam
 70
0
 62
3
  6
Continuous
370
    -3
390
F
347
3E
  0
LAYER
  5
1a0
330
2
100
AcDbSymbolTableRecord
100
AcDbLayerTableRecord
  2
pox_beam
 70
0
 62
5
  6
Continuous
370
    -3
390
F
347
3E
  0
LAYER
  5
1a1
330
2
100
AcDbSymbolTableRecord
100
AcDbLayerTableRecord
  2
stray_beam
 70
0
 62
3
  6
Continuous
370
    -3
390
F
347
3E
  0
LAYER
  5
212
330
2
100
AcDbSymbolTableRecord
100
AcDbLayerTableRecord
  2
poy_beam
 70
0
 62
5
  6
Continuous
370
    -3
390
F
347
3E
  0
LAYER
  5
213
330
2
100
AcDbSymbolTableRecord
100
AcDbLayerTableRecord
  2
main_beam_width
 70
0
 62
6
  6
Continuous
370
    -3
390
F
347
3E
  0
LAYER
  5
27c
330
2
100
AcDbSymbolTableRecord
100
AcDbLayerTableRecord
  2
Vacuum
 70
0
 62
255
  6
Continuous
370
    -3
390
F
347
3E
  0
LAYER
  5
2a0
330
2
100
AcDbSymbolTableRecord
100
AcDbLayerTableRecord
  2
poxpoy_beam
 70
0
 62
5
  6
Continuous
370
    -3
390
F
347
3E
  0
LAYER
  5
2ab
330
2
100
AcDbSymbolTableRecord
100
AcDbLayerTableRecord
  2
poy_beam_width
 70
0
 62
4
  6
Continuous
370
    -3
390
F
347
3E
  0
LAYER
  5
2ac
330
2
100
AcDbSymbolTableRecord
100
AcDbLayerTableRecord
  2
poxpoy_beam_width
 70
0
 62
4
  6
Continuous
370
    -3
390
F
347
3E
  0
LAYER
  5
2c1
330
2
100
AcDbSymbolTableRecord
100
AcDbLayerTableRecord
  2
pox_beam_width
 70
0
 62
4
  6
Continuous
370
    -3
390
F
347
3E
  0
LAYER
  5
2c2
330
2
100
AcDbSymbolTableRecord
100
AcDbLayerTableRecord
  2
stray_beam_width
 70
0
 62
4
  6
Continuous
370
    -3
390
F
347
3E
  0
LAYER
  5
2c3
330
2
100
AcDbSymbolTableRecord
100
AcDbLayerTableRecord
  2
aux_beam_width
 70
0
 62
4
  6
Continuous
370
    -3
390
F
347
3E
  0
ENDTAB
  0
TABLE
  2
STYLE
  5
3
330
0
100
AcDbSymbolTable
 70
    33
  0
STYLE
  5
11
330
3
100
AcDbSymbolTableRecord
100
AcDbTextStyleTableRecord
  2
Standard
 70
     0
 40
0.0
 41
1.0
 50
0.0
 71
     0
 42
2.5
  3
txt
  4

  0
ENDTAB
  0
TABLE
  2
VIEW
  5
6
330
0
100
AcDbSymbolTable
 70
     0
  0
ENDTAB
  0
TABLE
  2
UCS
  5
7
330
0
100
AcDbSymbolTable
 70
     0
  0
ENDTAB
  0
TABLE
  2
APPID
  5
9
330
0
100
AcDbSymbolTable
 70
     1
  0
APPID
  5
12
330
9
100
AcDbSymbolTableRecord
100
AcDbRegAppTableRecord
  2
ACAD
 70
     0
  0
ENDTAB
  0
TABLE
  2
DIMSTYLE
  5
A
330
0
100
AcDbSymbolTable
 70
     1
100
AcDbDimStyleTable
  0
DIMSTYLE
105
27
330
A
100
AcDbSymbolTableRecord
100
AcDbDimStyleTableRecord
  2
ISO-25
 70
     0
 41
2.5
 42
0.625
 43
3.75
 44
1.25
 73
     0
 74
     0
 77
     1
 78
     8
140
2.5
141
2.5
143
0.03937007874016
147
0.625
171
     3
172
     1
178
     0
271
     2
272
     2
274
     3
278
    44
283
     0
284
     8
340
11
  0
ENDTAB
  0
TABLE
  2
BLOCK_RECORD
  5
1
330
0
100
AcDbSymbolTable
 70
     1
  0
BLOCK_RECORD
  5
1F
330
1
100
AcDbSymbolTableRecord
100
AcDbBlockTableRecord
  2
*Model_Space
340
22
 70
     0
280
     1
281
     0
  0
BLOCK_RECORD
  5
1B
330
1
100
AcDbSymbolTableRecord
100
AcDbBlockTableRecord
  2
*Paper_Space
340
1E
 70
     0
280
     1
281
     0
  0
BLOCK_RECORD
  5
23
330
1
100
AcDbSymbolTableRecord
100
AcDbBlockTableRecord
  2
*Paper_Space0
340
26
 70
     0
280
     1
281
     0
  0
ENDTAB
    0
ENDSEC
  0
SECTION
  2
BLOCKS
  0
BLOCK
  5
20
330
1F
100
AcDbEntity
  8
0
100
AcDbBlockBegin
  2
*Model_Space
 70
     0
 10
0.0
 20
0.0
 30
0.0
  3
*Model_Space
  1

  0
ENDBLK
  5
21
330
1F
100
AcDbEntity
  8
0
100
AcDbBlockEnd
  0
BLOCK
  5
1C
330
1B
100
AcDbEntity
 67
     1
  8
0
100
AcDbBlockBegin
  2
*Paper_Space
 70
     0
 10
0.0
 20
0.0
 30
0.0
  3
*Paper_Space
  1

  0
ENDBLK
  5
1D
330
1B
100
AcDbEntity
 67
     1
  8
0
100
AcDbBlockEnd
  0
BLOCK
  5
24
330
23
100
AcDbEntity
  8
0
100
AcDbBlockBegin
  2
*Paper_Space0
 70
     0
 10
0.0
 20
0.0
 30
0.0
  3
*Paper_Space0
  1

  0
ENDBLK
  5
25
330
23
100
AcDbEntity
  8
0
100
AcDbBlockEnd
  0
ENDSEC
  0
SECTION
  2
ENTITIES
  0
LINE
  5
79
330
1F
100
AcDbEntity
  8
Mirrors
100
AcDbLine
 10
-19461.7355526
 20
101.717441151
 30
0.0
  11
-19557.3700711
 21
101.4459564
 31
0.0
  0
LINE
  5
7a
330
1F
100
AcDbEntity
  8
Mirrors
100
AcDbLine
 10
-19566.8099188
 20
351.420166136
 30
0.0
  11
-19462.4452432
 21
351.716433827
 31
0.0
  0
LINE
  5
7b
330
1F
100
AcDbEntity
  8
Mirrors
100
AcDbLine
 10
-19472.4452029
 20
351.688046205
 30
0.0
  11
-19471.7355123
 21
101.689053529
 31
0.0
  0
LWPOLYLINE
  5
7c
330
1F
100
AcDbEntity
  8
Mirrors
100
AcDbPolyline
 90
60
 70
0
43
0.0
 10
-19462.4452432
 20
351.716433827
 10
-19462.4341629
 20
347.406103086
 10
-19462.4230421
 20
343.09577246
 10
-19462.4118808
 20
338.78544195
 10
-19462.4006788
 20
334.475111554
 10
-19462.3894364
 20
330.164781274
 10
-19462.3781533
 20
325.854451108
 10
-19462.3668298
 20
321.544121058
 10
-19462.3554656
 20
317.233791123
 10
-19462.344061
 20
312.923461303
 10
-19462.3326157
 20
308.613131598
 10
-19462.3211299
 20
304.302802008
 10
-19462.3096036
 20
299.992472534
 10
-19462.2980367
 20
295.682143174
 10
-19462.2864292
 20
291.37181393
 10
-19462.2747812
 20
287.061484801
 10
-19462.2630926
 20
282.751155787
 10
-19462.2513635
 20
278.440826888
 10
-19462.2395939
 20
274.130498104
 10
-19462.2277836
 20
269.820169435
 10
-19462.2159329
 20
265.509840881
 10
-19462.2040415
 20
261.199512443
 10
-19462.1921096
 20
256.88918412
 10
-19462.1801372
 20
252.578855911
 10
-19462.1681242
 20
248.268527818
 10
-19462.1560706
 20
243.95819984
 10
-19462.1439765
 20
239.647871977
 10
-19462.1318419
 20
235.33754423
 10
-19462.1196667
 20
231.027216597
 10
-19462.1074509
 20
226.716889079
 10
-19462.1074509
 20
226.716889079
 10
-19462.0951946
 20
222.406561677
 10
-19462.0828977
 20
218.09623439
 10
-19462.0705603
 20
213.785907218
 10
-19462.0581823
 20
209.475580161
 10
-19462.0457638
 20
205.165253219
 10
-19462.0333047
 20
200.854926392
 10
-19462.020805
 20
196.54459968
 10
-19462.0082648
 20
192.234273084
 10
-19461.9956841
 20
187.923946602
 10
-19461.9830628
 20
183.613620236
 10
-19461.9704009
 20
179.303293985
 10
-19461.9576985
 20
174.992967849
 10
-19461.9449555
 20
170.682641828
 10
-19461.932172
 20
166.372315922
 10
-19461.9193479
 20
162.061990132
 10
-19461.9064833
 20
157.751664456
 10
-19461.8935781
 20
153.441338896
 10
-19461.8806323
 20
149.131013451
 10
-19461.867646
 20
144.82068812
 10
-19461.8546192
 20
140.510362905
 10
-19461.8415518
 20
136.200037805
 10
-19461.8284438
 20
131.889712821
 10
-19461.8152953
 20
127.579387951
 10
-19461.8021063
 20
123.269063196
 10
-19461.7888766
 20
118.958738557
 10
-19461.7756065
 20
114.648414033
 10
-19461.7622957
 20
110.338089624
 10
-19461.7489445
 20
106.02776533
 10
-19461.7355526
 20
101.717441151
  0
LINE
  5
7d
330
1F
100
AcDbEntity
  8
Mirrors
100
AcDbLine
 10
-19557.3700711
 20
101.4459564
 30
0.0
  11
-19566.8099188
 21
351.420166136
 31
0.0
  0
LINE
  5
7e
330
1F
100
AcDbEntity
  8
Mirrors
100
AcDbLine
 10
3026507.10965
 20
93.6192715165
 30
0.0
  11
3026656.62969
 21
93.6192715165
 31
0.0
  0
LINE
  5
7f
330
1F
100
AcDbEntity
  8
Mirrors
100
AcDbLine
 10
3026657.58962
 20
-126.380728483
 30
0.0
  11
3026507.10965
 21
-126.380728483
 31
0.0
  0
LINE
  5
80
330
1F
100
AcDbEntity
  8
Mirrors
100
AcDbLine
 10
3026522.10965
 20
-126.380728483
 30
0.0
  11
3026522.10965
 21
93.6192715165
 31
0.0
  0
LWPOLYLINE
  5
81
330
1F
100
AcDbEntity
  8
Mirrors
100
AcDbPolyline
 90
60
 70
0
43
0.0
 10
3026507.10965
 20
-126.380728483
 10
3026507.10987
 20
-122.587625035
 10
3026507.11008
 20
-118.794521587
 10
3026507.11028
 20
-115.001418139
 10
3026507.11047
 20
-111.20831469
 10
3026507.11066
 20
-107.415211242
 10
3026507.11084
 20
-103.622107794
 10
3026507.11101
 20
-99.8290043455
 10
3026507.11117
 20
-96.0359008973
 10
3026507.11132
 20
-92.242797449
 10
3026507.11147
 20
-88.4496940007
 10
3026507.11161
 20
-84.6565905524
 10
3026507.11174
 20
-80.8634871042
 10
3026507.11187
 20
-77.0703836559
 10
3026507.11199
 20
-73.2772802076
 10
3026507.1121
 20
-69.4841767593
 10
3026507.1122
 20
-65.6910733111
 10
3026507.11229
 20
-61.8979698628
 10
3026507.11238
 20
-58.1048664145
 10
3026507.11246
 20
-54.3117629662
 10
3026507.11253
 20
-50.5186595179
 10
3026507.1126
 20
-46.7255560697
 10
3026507.11265
 20
-42.9324526214
 10
3026507.1127
 20
-39.1393491731
 10
3026507.11274
 20
-35.3462457248
 10
3026507.11278
 20
-31.5531422766
 10
3026507.1128
 20
-27.7600388283
 10
3026507.11282
 20
-23.96693538
 10
3026507.11283
 20
-20.1738319317
 10
3026507.11284
 20
-16.3807284835
 10
3026507.11284
 20
-16.3807284835
 10
3026507.11283
 20
-12.5876250352
 10
3026507.11282
 20
-8.79452158691
 10
3026507.1128
 20
-5.00141813864
 10
3026507.11278
 20
-1.20831469036
 10
3026507.11274
 20
2.58478875792
 10
3026507.1127
 20
6.37789220619
 10
3026507.11265
 20
10.1709956545
 10
3026507.1126
 20
13.9640991027
 10
3026507.11253
 20
17.757202551
 10
3026507.11246
 20
21.5503059993
 10
3026507.11238
 20
25.3434094476
 10
3026507.11229
 20
29.1365128958
 10
3026507.1122
 20
32.9296163441
 10
3026507.1121
 20
36.7227197924
 10
3026507.11199
 20
40.5158232407
 10
3026507.11187
 20
44.3089266889
 10
3026507.11174
 20
48.1020301372
 10
3026507.11161
 20
51.8951335855
 10
3026507.11147
 20
55.6882370338
 10
3026507.11132
 20
59.4813404821
 10
3026507.11117
 20
63.2744439303
 10
3026507.11101
 20
67.0675473786
 10
3026507.11084
 20
70.8606508269
 10
3026507.11066
 20
74.6537542752
 10
3026507.11047
 20
78.4468577234
 10
3026507.11028
 20
82.2399611717
 10
3026507.11008
 20
86.03306462
 10
3026507.10987
 20
89.8261680683
 10
3026507.10965
 20
93.6192715165
  0
LINE
  5
82
330
1F
100
AcDbEntity
  8
Mirrors
100
AcDbLine
 10
3026656.62969
 20
93.6192715165
 30
0.0
  11
3026657.58962
 21
-126.380728483
 31
0.0
  0
LINE
  5
83
330
1F
100
AcDbEntity
  8
Mirrors
100
AcDbLine
 10
-117.590557088
 20
3023221.97254
 30
0.0
  11
-117.590557088
 21
3023371.49258
 31
0.0
  0
LINE
  5
84
330
1F
100
AcDbEntity
  8
Mirrors
100
AcDbLine
 10
102.409442912
 20
3023372.45251
 30
0.0
  11
102.409442912
 21
3023221.97254
 31
0.0
  0
LINE
  5
85
330
1F
100
AcDbEntity
  8
Mirrors
100
AcDbLine
 10
102.409442912
 20
3023236.97254
 30
0.0
  11
-117.590557088
 21
3023236.97254
 31
0.0
  0
LWPOLYLINE
  5
86
330
1F
100
AcDbEntity
  8
Mirrors
100
AcDbPolyline
 90
60
 70
0
43
0.0
 10
102.409442912
 20
3023221.97254
 10
98.6163394635
 20
3023221.97276
 10
94.8232360153
 20
3023221.97297
 10
91.030132567
 20
3023221.97317
 10
87.2370291187
 20
3023221.97336
 10
83.4439256704
 20
3023221.97355
 10
79.6508222222
 20
3023221.97373
 10
75.8577187739
 20
3023221.9739
 10
72.0646153256
 20
3023221.97406
 10
68.2715118773
 20
3023221.97421
 10
64.4784084291
 20
3023221.97436
 10
60.6853049808
 20
3023221.9745
 10
56.8922015325
 20
3023221.97463
 10
53.0990980842
 20
3023221.97476
 10
49.305994636
 20
3023221.97488
 10
45.5128911877
 20
3023221.97499
 10
41.7197877394
 20
3023221.97509
 10
37.9266842911
 20
3023221.97518
 10
34.1335808429
 20
3023221.97527
 10
30.3404773946
 20
3023221.97535
 10
26.5473739463
 20
3023221.97542
 10
22.754270498
 20
3023221.97549
 10
18.9611670498
 20
3023221.97554
 10
15.1680636015
 20
3023221.97559
 10
11.3749601532
 20
3023221.97563
 10
7.58185670492
 20
3023221.97567
 10
3.78875325665
 20
3023221.97569
 10
-0.00435019162677
 20
3023221.97571
 10
-3.7974536399
 20
3023221.97572
 10
-7.59055708818
 20
3023221.97573
 10
-7.59055708818
 20
3023221.97573
 10
-11.3836605365
 20
3023221.97572
 10
-15.1767639847
 20
3023221.97571
 10
-18.969867433
 20
3023221.97569
 10
-22.7629708813
 20
3023221.97567
 10
-26.5560743296
 20
3023221.97563
 10
-30.3491777778
 20
3023221.97559
 10
-34.1422812261
 20
3023221.97554
 10
-37.9353846744
 20
3023221.97549
 10
-41.7284881227
 20
3023221.97542
 10
-45.5215915709
 20
3023221.97535
 10
-49.3146950192
 20
3023221.97527
 10
-53.1077984675
 20
3023221.97518
 10
-56.9009019158
 20
3023221.97509
 10
-60.694005364
 20
3023221.97499
 10
-64.4871088123
 20
3023221.97488
 10
-68.2802122606
 20
3023221.97476
 10
-72.0733157089
 20
3023221.97463
 10
-75.8664191571
 20
3023221.9745
 10
-79.6595226054
 20
3023221.97436
 10
-83.4526260537
 20
3023221.97421
 10
-87.245729502
 20
3023221.97406
 10
-91.0388329502
 20
3023221.9739
 10
-94.8319363985
 20
3023221.97373
 10
-98.6250398468
 20
3023221.97355
 10
-102.418143295
 20
3023221.97336
 10
-106.211246743
 20
3023221.97317
 10
-110.004350192
 20
3023221.97297
 10
-113.79745364
 20
3023221.97276
 10
-117.590557088
 20
3023221.97254
  0
LINE
  5
87
330
1F
100
AcDbEntity
  8
Mirrors
100
AcDbLine
 10
-117.590557088
 20
3023371.49258
 30
0.0
  11
102.409442912
 21
3023372.45251
 31
0.0
  0
LINE
  5
88
330
1F
100
AcDbEntity
  8
Mirrors
100
AcDbLine
 10
-4699.76391156
 20
393.643713251
 30
0.0
  11
-4604.13709585
 21
394.887475452
 31
0.0
  0
LINE
  5
89
330
1F
100
AcDbEntity
  8
Mirrors
100
AcDbLine
 10
-4592.15631266
 20
145.022157544
 30
0.0
  11
-4696.51258241
 21
143.664856427
 31
0.0
  0
LINE
  5
8a
330
1F
100
AcDbEntity
  8
Mirrors
100
AcDbLine
 10
-4686.51342814
 20
143.794909593
 30
0.0
  11
-4689.76475728
 21
393.773766417
 31
0.0
  0
LWPOLYLINE
  5
8b
330
1F
100
AcDbEntity
  8
Mirrors
100
AcDbPolyline
 90
60
 70
0
43
0.0
 10
-4696.51258241
 20
143.664856427
 10
-4696.74088011
 20
147.972596488
 10
-4696.96312515
 20
152.280415272
 10
-4697.1793185
 20
156.588312768
 10
-4697.38946111
 20
160.896288961
 10
-4697.59355388
 20
165.204343842
 10
-4697.7915977
 20
169.512477397
 10
-4697.9835934
 20
173.820689617
 10
-4698.16954178
 20
178.128980491
 10
-4698.34944361
 20
182.437350009
 10
-4698.52329962
 20
186.745798161
 10
-4698.69111051
 20
191.054324939
 10
-4698.85287692
 20
195.362930333
 10
-4699.0085995
 20
199.671614336
 10
-4699.15827882
 20
203.980376941
 10
-4699.30191543
 20
208.289218139
 10
-4699.43950986
 20
212.598137925
 10
-4699.57106258
 20
216.907136291
 10
-4699.69657404
 20
221.216213233
 10
-4699.81604464
 20
225.525368744
 10
-4699.92947477
 20
229.834602821
 10
-4700.03686475
 20
234.143915458
 10
-4700.1382149
 20
238.453306651
 10
-4700.23352547
 20
242.762776398
 10
-4700.3227967
 20
247.072324695
 10
-4700.40602879
 20
251.38195154
 10
-4700.48322189
 20
255.691656931
 10
-4700.55437613
 20
260.001440865
 10
-4700.6194916
 20
264.311303342
 10
-4700.67856835
 20
268.621244361
 10
-4700.67856835
 20
268.621244361
 10
-4700.7316064
 20
272.931263922
 10
-4700.77860573
 20
277.241362025
 10
-4700.81956628
 20
281.551538671
 10
-4700.85448798
 20
285.861793861
 10
-4700.88337069
 20
290.172127596
 10
-4700.90621426
 20
294.482539879
 10
-4700.92301848
 20
298.793030712
 10
-4700.93378314
 20
303.103600099
 10
-4700.93850795
 20
307.414248042
 10
-4700.93719263
 20
311.724974545
 10
-4700.92983682
 20
316.035779614
 10
-4700.91644016
 20
320.346663252
 10
-4700.89700224
 20
324.657625466
 10
-4700.87152261
 20
328.968666261
 10
-4700.84000079
 20
333.279785643
 10
-4700.80243627
 20
337.590983618
 10
-4700.75882849
 20
341.902260195
 10
-4700.70917687
 20
346.213615381
 10
-4700.65348079
 20
350.525049183
 10
-4700.59173958
 20
354.836561611
 10
-4700.52395254
 20
359.148152673
 10
-4700.45011896
 20
363.45982238
 10
-4700.37023806
 20
367.77157074
 10
-4700.28430904
 20
372.083397764
 10
-4700.19233106
 20
376.395303464
 10
-4700.09430325
 20
380.707287851
 10
-4699.9902247
 20
385.019350936
 10
-4699.88009446
 20
389.331492731
 10
-4699.76391156
 20
393.643713251
  0
LINE
  5
8c
330
1F
100
AcDbEntity
  8
Mirrors
100
AcDbLine
 10
-4604.13709585
 20
394.887475452
 30
0.0
  11
-4592.15631266
 21
145.022157544
 31
0.0
  0
LINE
  5
8d
330
1F
100
AcDbEntity
  8
Mirrors
100
AcDbLine
 10
390.280099826
 20
-19326.7088432
 30
0.0
  11
390.07113176
 21
-19422.3435187
 31
0.0
  0
LINE
  5
8e
330
1F
100
AcDbEntity
  8
Mirrors
100
AcDbLine
 10
140.052652572
 20
-19430.5274251
 30
0.0
  11
140.280696638
 21
-19326.1625781
 31
0.0
  0
LINE
  5
8f
330
1F
100
AcDbEntity
  8
Mirrors
100
AcDbLine
 10
140.258846032
 20
-19336.1625542
 30
0.0
  11
390.25824922
 21
-19336.7088194
 31
0.0
  0
LWPOLYLINE
  5
90
330
1F
100
AcDbEntity
  8
Mirrors
100
AcDbPolyline
 90
60
 70
0
43
0.0
 10
140.280696638
 20
-19326.1625781
 10
144.591028651
 20
-19326.1731522
 10
148.901360752
 20
-19326.1836858
 10
153.211692941
 20
-19326.1941789
 10
157.522025219
 20
-19326.2046314
 10
161.832357586
 20
-19326.2150433
 10
166.142690041
 20
-19326.2254147
 10
170.453022585
 20
-19326.2357455
 10
174.763355218
 20
-19326.2460358
 10
179.073687939
 20
-19326.2562855
 10
183.384020748
 20
-19326.2664947
 10
187.694353647
 20
-19326.2766633
 10
192.004686634
 20
-19326.2867914
 10
196.315019709
 20
-19326.2968789
 10
200.625352874
 20
-19326.3069259
 10
204.935686126
 20
-19326.3169323
 10
209.246019468
 20
-19326.3268981
 10
213.556352898
 20
-19326.3368234
 10
217.866686417
 20
-19326.3467081
 10
222.177020024
 20
-19326.3565523
 10
226.48735372
 20
-19326.366356
 10
230.797687504
 20
-19326.376119
 10
235.108021377
 20
-19326.3858415
 10
239.418355339
 20
-19326.3955235
 10
243.72868939
 20
-19326.4051649
 10
248.039023528
 20
-19326.4147658
 10
252.349357756
 20
-19326.4243261
 10
256.659692072
 20
-19326.4338458
 10
260.970026477
 20
-19326.443325
 10
265.28036097
 20
-19326.4527637
 10
265.28036097
 20
-19326.4527637
 10
269.590695552
 20
-19326.4621618
 10
273.901030223
 20
-19326.4715193
 10
278.211364982
 20
-19326.4808363
 10
282.52169983
 20
-19326.4901127
 10
286.832034767
 20
-19326.4993486
 10
291.142369792
 20
-19326.5085439
 10
295.452704906
 20
-19326.5176987
 10
299.763040108
 20
-19326.5268129
 10
304.073375399
 20
-19326.5358865
 10
308.383710778
 20
-19326.5449196
 10
312.694046247
 20
-19326.5539122
 10
317.004381803
 20
-19326.5628642
 10
321.314717449
 20
-19326.5717756
 10
325.625053183
 20
-19326.5806465
 10
329.935389005
 20
-19326.5894768
 10
334.245724917
 20
-19326.5982666
 10
338.556060916
 20
-19326.6070158
 10
342.866397005
 20
-19326.6157245
 10
347.176733182
 20
-19326.6243926
 10
351.487069448
 20
-19326.6330201
 10
355.797405802
 20
-19326.6416071
 10
360.107742245
 20
-19326.6501536
 10
364.418078776
 20
-19326.6586595
 10
368.728415397
 20
-19326.6671248
 10
373.038752105
 20
-19326.6755496
 10
377.349088903
 20
-19326.6839339
 10
381.659425789
 20
-19326.6922775
 10
385.969762763
 20
-19326.7005807
 10
390.280099826
 20
-19326.7088432
  0
LINE
  5
91
330
1F
100
AcDbEntity
  8
Mirrors
100
AcDbLine
 10
390.07113176
 20
-19422.3435187
 30
0.0
  11
140.052652572
 21
-19430.5274251
 31
0.0
  0
LINE
  5
92
330
1F
100
AcDbEntity
  8
Mirrors
100
AcDbLine
 10
172.532692709
 20
-4581.10373406
 30
0.0
  11
173.714177048
 21
-4485.47612862
 31
0.0
  0
LINE
  5
93
330
1F
100
AcDbEntity
  8
Mirrors
100
AcDbLine
 10
423.802952085
 20
-4479.83513056
 30
0.0
  11
422.51361397
 21
-4584.19226212
 31
0.0
  0
LINE
  5
94
330
1F
100
AcDbEntity
  8
Mirrors
100
AcDbLine
 10
422.637155093
 20
-4574.19302527
 30
0.0
  11
172.656233832
 21
-4571.10449721
 31
0.0
  0
LWPOLYLINE
  5
95
330
1F
100
AcDbEntity
  8
Mirrors
100
AcDbPolyline
 90
60
 70
0
43
0.0
 10
422.51361397
 20
-4584.19226212
 10
418.201406358
 20
-4584.3164069
 10
413.889275772
 20
-4584.43431728
 10
409.5772222
 20
-4584.54599434
 10
405.265245627
 20
-4584.65143912
 10
400.953346042
 20
-4584.75065261
 10
396.641523434
 20
-4584.84363577
 10
392.32977779
 20
-4584.9303895
 10
388.018109101
 20
-4585.01091469
 10
383.706517355
 20
-4585.08521218
 10
379.395002543
 20
-4585.15328275
 10
375.083564655
 20
-4585.21512718
 10
370.772203682
 20
-4585.27074617
 10
366.460919617
 20
-4585.32014042
 10
362.149712451
 20
-4585.36331056
 10
357.838582177
 20
-4585.4002572
 10
353.527528788
 20
-4585.4309809
 10
349.216552277
 20
-4585.45548218
 10
344.905652638
 20
-4585.47376153
 10
340.594829866
 20
-4585.4858194
 10
336.284083955
 20
-4585.4916562
 10
331.973414902
 20
-4585.49127229
 10
327.662822702
 20
-4585.48466801
 10
323.352307351
 20
-4585.47184365
 10
319.041868847
 20
-4585.45279945
 10
314.731507186
 20
-4585.42753564
 10
310.421222367
 20
-4585.39605239
 10
306.111014387
 20
-4585.35834983
 10
301.800883247
 20
-4585.31442806
 10
297.490828944
 20
-4585.26428714
 10
297.490828944
 20
-4585.26428714
 10
293.180851479
 20
-4585.20792709
 10
288.870950852
 20
-4585.14534789
 10
284.561127064
 20
-4585.07654949
 10
280.251380115
 20
-4585.00153177
 10
275.941710008
 20
-4584.92029461
 10
271.632116745
 20
-4584.83283784
 10
267.322600328
 20
-4584.73916124
 10
263.013160761
 20
-4584.63926455
 10
258.703798047
 20
-4584.53314749
 10
254.394512189
 20
-4584.42080973
 10
250.085303194
 20
-4584.30225089
 10
245.776171065
 20
-4584.17747057
 10
241.467115809
 20
-4584.04646832
 10
237.158137431
 20
-4583.90924365
 10
232.849235937
 20
-4583.76579605
 10
228.540411336
 20
-4583.61612494
 10
224.231663633
 20
-4583.46022972
 10
219.922992838
 20
-4583.29810976
 10
215.614398958
 20
-4583.12976436
 10
211.305882002
 20
-4582.95519282
 10
206.997441981
 20
-4582.77439437
 10
202.689078903
 20
-4582.58736821
 10
198.380792779
 20
-4582.39411351
 10
194.07258362
 20
-4582.19462939
 10
189.764451437
 20
-4581.98891493
 10
185.456396242
 20
-4581.77696918
 10
181.148418047
 20
-4581.55879115
 10
176.840516865
 20
-4581.3343798
 10
172.532692709
 20
-4581.10373406
  0
LINE
  5
96
330
1F
100
AcDbEntity
  8
Mirrors
100
AcDbLine
 10
173.714177048
 20
-4485.47612862
 30
0.0
  11
423.802952085
 21
-4479.83513056
 31
0.0
  0
LINE
  5
97
330
1F
100
AcDbEntity
  8
Mirrors
100
AcDbLine
 10
172.235133536
 20
-15694.9556356
 30
0.0
  11
171.226432245
 21
-15790.5852197
 31
0.0
  0
LINE
  5
98
330
1F
100
AcDbEntity
  8
Mirrors
100
AcDbLine
 10
-78.8517423525
 20
-15796.6780719
 30
0.0
  11
-77.7509600738
 21
-15692.3187811
 31
0.0
  0
LINE
  5
99
330
1F
100
AcDbEntity
  8
Mirrors
100
AcDbLine
 10
-77.8564342524
 20
-15702.3182249
 30
0.0
  11
172.129659358
 21
-15704.9550793
 31
0.0
  0
LWPOLYLINE
  5
9a
330
1F
100
AcDbEntity
  8
Mirrors
100
AcDbPolyline
 90
60
 70
0
43
0.0
 10
-77.7509600738
 20
-15692.3187811
 10
-73.4410791589
 20
-15692.3854943
 10
-69.131190379
 20
-15692.4514619
 10
-64.8212937341
 20
-15692.5166839
 10
-60.5113892243
 20
-15692.5811602
 10
-56.2014768494
 20
-15692.6448909
 10
-51.8915566097
 20
-15692.7078759
 10
-47.5816285051
 20
-15692.7701153
 10
-43.2716925355
 20
-15692.8316091
 10
-38.9617487011
 20
-15692.8923573
 10
-34.6517970019
 20
-15692.9523598
 10
-30.3418374377
 20
-15693.0116167
 10
-26.0318700088
 20
-15693.070128
 10
-21.721894715
 20
-15693.1278936
 10
-17.4119115564
 20
-15693.1849137
 10
-13.101920533
 20
-15693.2411881
 10
-8.79192164476
 20
-15693.2967169
 10
-4.48191489178
 20
-15693.3515001
 10
-0.17190027403
 20
-15693.4055377
 10
4.13812220849
 20
-15693.4588296
 10
8.44815255577
 20
-15693.511376
 10
12.7581907678
 20
-15693.5631767
 10
17.0682368446
 20
-15693.6142318
 10
21.3782907861
 20
-15693.6645413
 10
25.6883525923
 20
-15693.7141051
 10
29.9984222633
 20
-15693.7629234
 10
34.308499799
 20
-15693.8109961
 10
38.6185851995
 20
-15693.8583231
 10
42.9286784646
 20
-15693.9049045
 10
47.2387795945
 20
-15693.9507403
 10
47.2387795945
 20
-15693.9507403
 10
51.5488885891
 20
-15693.9958305
 10
55.8590054485
 20
-15694.0401751
 10
60.1691301725
 20
-15694.0837741
 10
64.4792627613
 20
-15694.1266275
 10
68.7894032148
 20
-15694.1687352
 10
73.099551533
 20
-15694.2100974
 10
77.409707716
 20
-15694.2507139
 10
81.7198717637
 20
-15694.2905848
 10
86.0300436762
 20
-15694.3297101
 10
90.3402234534
 20
-15694.3680898
 10
94.6504110954
 20
-15694.4057238
 10
98.9606066021
 20
-15694.4426123
 10
103.270809974
 20
-15694.4787551
 10
107.58102121
 20
-15694.5141523
 10
111.891240311
 20
-15694.5488039
 10
116.201467277
 20
-15694.5827099
 10
120.511702108
 20
-15694.6158703
 10
124.821944803
 20
-15694.648285
 10
129.132195364
 20
-15694.6799541
 10
133.442453789
 20
-15694.7108776
 10
137.752720079
 20
-15694.7410554
 10
142.062994234
 20
-15694.7704877
 10
146.373276254
 20
-15694.7991743
 10
150.683566138
 20
-15694.8271152
 10
154.993863888
 20
-15694.8543106
 10
159.304169503
 20
-15694.8807603
 10
163.614482982
 20
-15694.9064644
 10
167.924804327
 20
-15694.9314228
 10
172.235133536
 20
-15694.9556356
  0
LINE
  5
9b
330
1F
100
AcDbEntity
  8
Mirrors
100
AcDbLine
 10
171.226432245
 20
-15790.5852197
 30
0.0
  11
-78.8517423525
 21
-15796.6780719
 31
0.0
  0
LINE
  5
9c
330
1F
100
AcDbEntity
  8
Mirrors
100
AcDbLine
 10
-15762.0579045
 20
-112.773928553
 30
0.0
  11
-15857.6868114
 21
-113.844909033
 31
0.0
  0
LINE
  5
9d
330
1F
100
AcDbEntity
  8
Mirrors
100
AcDbLine
 10
-15869.2161153
 20
136.041648048
 30
0.0
  11
-15764.8575635
 21
137.210394774
 31
0.0
  0
LINE
  5
9e
330
1F
100
AcDbEntity
  8
Mirrors
100
AcDbLine
 10
-15774.8569364
 20
137.098408414
 30
0.0
  11
-15772.0572774
 21
-112.885914913
 31
0.0
  0
LWPOLYLINE
  5
9f
330
1F
100
AcDbEntity
  8
Mirrors
100
AcDbPolyline
 90
60
 70
0
43
0.0
 10
-15764.8575635
 20
137.210394774
 10
-15764.8305436
 20
132.900082248
 10
-15764.802778
 20
128.589778072
 10
-15764.7742668
 20
124.279482246
 10
-15764.74501
 20
119.969194771
 10
-15764.7150076
 20
115.658915647
 10
-15764.6842595
 20
111.348644873
 10
-15764.6527658
 20
107.038382449
 10
-15764.6205265
 20
102.728128376
 10
-15764.5875416
 20
98.4178826537
 10
-15764.553811
 20
94.1076452817
 10
-15764.5193348
 20
89.7974162601
 10
-15764.484113
 20
85.4871955889
 10
-15764.4481456
 20
81.1769832682
 10
-15764.4114326
 20
76.8667792978
 10
-15764.3739739
 20
72.5565836779
 10
-15764.3357697
 20
68.2463964083
 10
-15764.2968198
 20
63.9362174891
 10
-15764.2571243
 20
59.6260469203
 10
-15764.2166832
 20
55.3158847018
 10
-15764.1754965
 20
51.0057308337
 10
-15764.1335642
 20
46.6955853158
 10
-15764.0908863
 20
42.3854481484
 10
-15764.0474627
 20
38.0753193312
 10
-15764.0032936
 20
33.7651988644
 10
-15763.9583788
 20
29.4550867479
 10
-15763.9127185
 20
25.1449829817
 10
-15763.8663125
 20
20.8348875658
 10
-15763.8191609
 20
16.5248005002
 10
-15763.7712638
 20
12.2147217849
 10
-15763.7712638
 20
12.2147217849
 10
-15763.722621
 20
7.90465141993
 10
-15763.6732326
 20
3.59458940526
 10
-15763.6230986
 20
-0.715464259101
 10
-15763.572219
 20
-5.02550957315
 10
-15763.5205938
 20
-9.33554653689
 10
-15763.4682229
 20
-13.6455751503
 10
-15763.4151065
 20
-17.9555954134
 10
-15763.3612445
 20
-22.2656073262
 10
-15763.3066368
 20
-26.5756108886
 10
-15763.2512836
 20
-30.8856061007
 10
-15763.1951847
 20
-35.1955929625
 10
-15763.1383402
 20
-39.5055714739
 10
-15763.0807501
 20
-43.815541635
 10
-15763.0224144
 20
-48.1255034457
 10
-15762.9633331
 20
-52.435456906
 10
-15762.9035061
 20
-56.7454020159
 10
-15762.8429336
 20
-61.0553387754
 10
-15762.7816154
 20
-65.3652671845
 10
-15762.7195516
 20
-69.6751872432
 10
-15762.6567422
 20
-73.9850989514
 10
-15762.5931872
 20
-78.2950023092
 10
-15762.5288866
 20
-82.6048973165
 10
-15762.4638403
 20
-86.9147839733
 10
-15762.3980484
 20
-91.2246622796
 10
-15762.3315109
 20
-95.5345322354
 10
-15762.2642277
 20
-99.8443938406
 10
-15762.196199
 20
-104.154247095
 10
-15762.1274245
 20
-108.464091999
 10
-15762.0579045
 20
-112.773928553
  0
LINE
  5
a0
330
1F
100
AcDbEntity
  8
Mirrors
100
AcDbLine
 10
-15857.6868114
 20
-113.844909033
 30
0.0
  11
-15869.2161153
 21
136.041648048
 31
0.0
  0
LINE
  5
a1
330
1F
100
AcDbEntity
  8
Mirrors
100
AcDbLine
 10
134.380236173
 20
134.320334
 30
0.0
  11
191.123712967
 21
77.5515515999
 31
0.0
  0
LINE
  5
a2
330
1F
100
AcDbEntity
  8
Mirrors
100
AcDbLine
 10
-78.0118527562
 20
-190.713855746
 30
0.0
  11
-134.380236173
 21
-134.320334
 31
0.0
  0
LINE
  5
a3
330
1F
100
AcDbEntity
  8
Mirrors
100
AcDbLine
 10
-128.724643163
 20
-139.978449208
 30
0.0
  11
140.035829184
 21
128.662218793
 31
0.0
  0
LINE
  5
a4
330
1F
100
AcDbEntity
  8
Mirrors
100
AcDbLine
 10
-134.380236173
 20
-134.320334
 30
0.0
  11
134.380236173
 21
134.320334
 31
0.0
  0
LINE
  5
a5
330
1F
100
AcDbEntity
  8
Mirrors
100
AcDbLine
 10
191.123712967
 20
77.5515515999
 30
0.0
  11
-78.0118527562
 21
-190.713855746
 31
0.0
  0
LINE
  5
a6
330
1F
100
AcDbEntity
  8
Mirrors
100
AcDbLine
 10
26507.1160223
 20
-126.380728491
 30
0.0
  11
26357.0680258
 21
-126.380728491
 31
0.0
  0
LINE
  5
a7
330
1F
100
AcDbEntity
  8
Mirrors
100
AcDbLine
 10
26357.1640189
 20
93.6192715095
 30
0.0
  11
26507.1160223
 21
93.6192715095
 31
0.0
  0
LINE
  5
a8
330
1F
100
AcDbEntity
  8
Mirrors
100
AcDbLine
 10
26492.1160223
 20
93.6192715095
 30
0.0
  11
26492.1160223
 21
-126.380728491
 31
0.0
  0
LWPOLYLINE
  5
a9
330
1F
100
AcDbEntity
  8
Mirrors
100
AcDbPolyline
 90
60
 70
0
43
0.0
 10
26507.1160223
 20
93.6192715095
 10
26507.1158065
 20
89.8261680612
 10
26507.1155983
 20
86.0330646129
 10
26507.1153976
 20
82.2399611646
 10
26507.1152045
 20
78.4468577163
 10
26507.115019
 20
74.6537542681
 10
26507.114841
 20
70.8606508198
 10
26507.1146706
 20
67.0675473715
 10
26507.1145078
 20
63.2744439232
 10
26507.1143526
 20
59.481340475
 10
26507.1142049
 20
55.6882370267
 10
26507.1140648
 20
51.8951335784
 10
26507.1139323
 20
48.1020301301
 10
26507.1138074
 20
44.3089266819
 10
26507.11369
 20
40.5158232336
 10
26507.1135802
 20
36.7227197853
 10
26507.113478
 20
32.929616337
 10
26507.1133833
 20
29.1365128888
 10
26507.1132962
 20
25.3434094405
 10
26507.1132167
 20
21.5503059922
 10
26507.1131448
 20
17.7572025439
 10
26507.1130804
 20
13.9640990957
 10
26507.1130236
 20
10.1709956474
 10
26507.1129744
 20
6.37789219911
 10
26507.1129328
 20
2.58478875083
 10
26507.1128987
 20
-1.20831469744
 10
26507.1128722
 20
-5.00141814572
 10
26507.1128532
 20
-8.794521594
 10
26507.1128419
 20
-12.5876250423
 10
26507.1128381
 20
-16.3807284905
 10
26507.1128381
 20
-16.3807284905
 10
26507.1128419
 20
-20.1738319388
 10
26507.1128532
 20
-23.9669353871
 10
26507.1128722
 20
-27.7600388354
 10
26507.1128987
 20
-31.5531422837
 10
26507.1129328
 20
-35.3462457319
 10
26507.1129744
 20
-39.1393491802
 10
26507.1130236
 20
-42.9324526285
 10
26507.1130804
 20
-46.7255560768
 10
26507.1131448
 20
-50.518659525
 10
26507.1132167
 20
-54.3117629733
 10
26507.1132962
 20
-58.1048664216
 10
26507.1133833
 20
-61.8979698699
 10
26507.113478
 20
-65.6910733181
 10
26507.1135802
 20
-69.4841767664
 10
26507.11369
 20
-73.2772802147
 10
26507.1138074
 20
-77.070383663
 10
26507.1139323
 20
-80.8634871112
 10
26507.1140648
 20
-84.6565905595
 10
26507.1142049
 20
-88.4496940078
 10
26507.1143526
 20
-92.2427974561
 10
26507.1145078
 20
-96.0359009043
 10
26507.1146706
 20
-99.8290043526
 10
26507.114841
 20
-103.622107801
 10
26507.115019
 20
-107.415211249
 10
26507.1152045
 20
-111.208314697
 10
26507.1153976
 20
-115.001418146
 10
26507.1155983
 20
-118.794521594
 10
26507.1158065
 20
-122.587625042
 10
26507.1160223
 20
-126.380728491
  0
LINE
  5
aa
330
1F
100
AcDbEntity
  8
Mirrors
100
AcDbLine
 10
26357.0680258
 20
-126.380728491
 30
0.0
  11
26357.1640189
 21
93.6192715095
 31
0.0
  0
LINE
  5
ab
330
1F
100
AcDbEntity
  8
Mirrors
100
AcDbLine
 10
102.409442927
 20
23221.9789127
 30
0.0
  11
102.409442927
 21
23071.9309161
 31
0.0
  0
LINE
  5
ac
330
1F
100
AcDbEntity
  8
Mirrors
100
AcDbLine
 10
-117.590557073
 20
23072.0269093
 30
0.0
  11
-117.590557073
 21
23221.9789127
 31
0.0
  0
LINE
  5
ad
330
1F
100
AcDbEntity
  8
Mirrors
100
AcDbLine
 10
-117.590557073
 20
23206.9789127
 30
0.0
  11
102.409442927
 21
23206.9789127
 31
0.0
  0
LWPOLYLINE
  5
ae
330
1F
100
AcDbEntity
  8
Mirrors
100
AcDbPolyline
 90
60
 70
0
43
0.0
 10
-117.590557073
 20
23221.9789127
 10
-113.797453625
 20
23221.9786969
 10
-110.004350177
 20
23221.9784886
 10
-106.211246728
 20
23221.978288
 10
-102.41814328
 20
23221.9780949
 10
-98.6250398319
 20
23221.9779093
 10
-94.8319363836
 20
23221.9777314
 10
-91.0388329354
 20
23221.977561
 10
-87.2457294871
 20
23221.9773982
 10
-83.4526260388
 20
23221.977243
 10
-79.6595225905
 20
23221.9770953
 10
-75.8664191423
 20
23221.9769552
 10
-72.073315694
 20
23221.9768227
 10
-68.2802122457
 20
23221.9766978
 10
-64.4871087974
 20
23221.9765804
 10
-60.6940053491
 20
23221.9764706
 10
-56.9009019009
 20
23221.9763684
 10
-53.1077984526
 20
23221.9762737
 10
-49.3146950043
 20
23221.9761866
 10
-45.521591556
 20
23221.9761071
 10
-41.7284881078
 20
23221.9760352
 10
-37.9353846595
 20
23221.9759708
 10
-34.1422812112
 20
23221.975914
 10
-30.3491777629
 20
23221.9758648
 10
-26.5560743147
 20
23221.9758231
 10
-22.7629708664
 20
23221.9757891
 10
-18.9698674181
 20
23221.9757626
 10
-15.1767639698
 20
23221.9757436
 10
-11.3836605216
 20
23221.9757323
 10
-7.59055707329
 20
23221.9757285
 10
-7.59055707329
 20
23221.9757285
 10
-3.79745362501
 20
23221.9757323
 10
-0.00435017673398
 20
23221.9757436
 10
3.78875327154
 20
23221.9757626
 10
7.58185671982
 20
23221.9757891
 10
11.3749601681
 20
23221.9758231
 10
15.1680636164
 20
23221.9758648
 10
18.9611670646
 20
23221.975914
 10
22.7542705129
 20
23221.9759708
 10
26.5473739612
 20
23221.9760352
 10
30.3404774095
 20
23221.9761071
 10
34.1335808577
 20
23221.9761866
 10
37.926684306
 20
23221.9762737
 10
41.7197877543
 20
23221.9763684
 10
45.5128912026
 20
23221.9764706
 10
49.3059946509
 20
23221.9765804
 10
53.0990980991
 20
23221.9766978
 10
56.8922015474
 20
23221.9768227
 10
60.6853049957
 20
23221.9769552
 10
64.478408444
 20
23221.9770953
 10
68.2715118922
 20
23221.977243
 10
72.0646153405
 20
23221.9773982
 10
75.8577187888
 20
23221.977561
 10
79.6508222371
 20
23221.9777314
 10
83.4439256853
 20
23221.9779093
 10
87.2370291336
 20
23221.9780949
 10
91.0301325819
 20
23221.978288
 10
94.8232360302
 20
23221.9784886
 10
98.6163394784
 20
23221.9786969
 10
102.409442927
 20
23221.9789127
  0
LINE
  5
af
330
1F
100
AcDbEntity
  8
Mirrors
100
AcDbLine
 10
102.409442927
 20
23071.9309161
 30
0.0
  11
-117.590557073
 21
23072.0269093
 31
0.0
  0
TEXT
  5
b1
330
1F
100
AcDbEntity
  8
text
100
AcDbText
 10
-4710.68136682
 20
269.592852947
 30
0.0
  40
1.0
  1
Beam P=5.00E+02 
 50
0.0
 7
Standard
100
AcDbText
  0
TEXT
  5
b2
330
1F
100
AcDbEntity
  8
text
100
AcDbText
 10
-4608.11804484
 20
270.175936592
 30
0.0
  40
1.0
  1
PR2:s1 P=2.50E-01 
 50
0.0
 7
Standard
100
AcDbText
  0
TEXT
  5
b3
330
1F
100
AcDbEntity
  8
text
100
AcDbText
 10
-15753.750778
 20
11.4466976471
 30
0.0
  40
1.0
  1
PR2:r1 P=5.00E+02 
 50
0.0
 7
Standard
100
AcDbText
  0
TEXT
  5
b4
330
1F
100
AcDbEntity
  8
text
100
AcDbText
 10
-15853.3959383
 20
9.47036243723
 30
0.0
  40
1.0
  1
PR3:s1 P=5.00E-02 
 50
0.0
 7
Standard
100
AcDbText
  0
TEXT
  5
b5
330
1F
100
AcDbEntity
  8
text
100
AcDbText
 10
142.64560766
 20
42.2225852903
 30
0.0
  40
1.0
  1
BS:s3 P=6.25E-03 
 50
0.0
 7
Standard
100
AcDbText
  0
TEXT
  5
b6
330
1F
100
AcDbEntity
  8
text
100
AcDbText
 10
65.1752207053
 20
53.5131270711
 30
0.0
  40
1.0
  1
BS:s2 P=2.50E-02 
 50
0.0
 7
Standard
100
AcDbText
  0
TEXT
  5
b7
330
1F
100
AcDbEntity
  8
text
100
AcDbText
 10
78.8688275292
 20
-21.3321139958
 30
0.0
  40
1.0
  1
BS:s1 P=2.50E+02 
 50
0.0
 7
Standard
100
AcDbText
  0
TEXT
  5
b8
330
1F
100
AcDbEntity
  8
text
100
AcDbText
 10
-9.99922001407
 20
1.00775042406
 30
0.0
  40
1.0
  1
PR3:r1 P=5.00E+02 
 50
0.0
 7
Standard
100
AcDbText
  0
TEXT
  5
b9
330
1F
100
AcDbEntity
  8
text
100
AcDbText
 10
-17.2617476002
 20
49918.9133924
 30
0.0
  40
1.0
  1
ITMY:s3 P=1.24E-01 
 50
0.0
 7
Standard
100
AcDbText
  0
TEXT
  5
ba
330
1F
100
AcDbEntity
  8
text
100
AcDbText
 10
-15.3934423199
 20
49838.9124928
 30
0.0
  40
1.0
  1
ITMY:s2 P=2.49E+02 
 50
0.0
 7
Standard
100
AcDbText
  0
TEXT
  5
bb
330
1F
100
AcDbEntity
  8
text
100
AcDbText
 10
-17.39344232
 20
49918.9119184
 30
0.0
  40
1.0
  1
ITMY:s1 P=2.50E+02 
 50
0.0
 7
Standard
100
AcDbText
  0
TEXT
  5
bc
330
1F
100
AcDbEntity
  8
text
100
AcDbText
 10
-17.3901523198
 20
49818.9121644
 30
0.0
  40
1.0
  1
BS:r1 P=2.50E+02 
 50
0.0
 7
Standard
100
AcDbText
  0
TEXT
  5
bd
330
1F
100
AcDbEntity
  8
text
100
AcDbText
 10
-15.1154211386
 20
49838.9137313
 30
0.0
  40
1.0
  1
ITMY:s4 P=1.24E-01 
 50
0.0
 7
Standard
100
AcDbText
  0
TEXT
  5
be
330
1F
100
AcDbEntity
  8
text
100
AcDbText
 10
-104.871956188
 20
-95.8444834204
 30
0.0
  40
1.0
  1
ITMY:r1 P=1.25E-01 
 50
0.0
 7
Standard
100
AcDbText
  0
TEXT
  5
bf
330
1F
100
AcDbEntity
  8
text
100
AcDbText
 10
-85.2687386804
 20
-175.309015585
 30
0.0
  40
1.0
  1
BS:s1 P=6.25E-02 
 50
0.0
 7
Standard
100
AcDbText
  0
TEXT
  5
c0
330
1F
100
AcDbEntity
  8
text
100
AcDbText
 10
-1095.8876335
 20
-108.17560968
 30
0.0
  40
1.0
  1
BS:r1 P=6.25E-02 
 50
0.0
 7
Standard
100
AcDbText
  0
TEXT
  5
c1
330
1F
100
AcDbEntity
  8
text
100
AcDbText
 10
-53.5901532662
 20
-66.616351784
 30
0.0
  40
1.0
  1
BS:s2 P=1.24E-02 
 50
0.0
 7
Standard
100
AcDbText
  0
TEXT
  5
c2
330
1F
100
AcDbEntity
  8
text
100
AcDbText
 10
0.996712168623
 20
10.0003306213
 30
0.0
  40
1.0
  1
ITMY:r2 P=2.49E+02 
 50
0.0
 7
Standard
100
AcDbText
  0
TEXT
  5
c3
330
1F
100
AcDbEntity
  8
text
100
AcDbText
 10
23.1823612739
 20
-78.1959496254
 30
0.0
  40
1.0
  1
BS:s1 P=1.24E+02 
 50
0.0
 7
Standard
100
AcDbText
  0
TEXT
  5
c4
330
1F
100
AcDbEntity
  8
text
100
AcDbText
 10
-15753.7720417
 20
11.2069756674
 30
0.0
  40
1.0
  1
BS:r1 P=1.24E+02 
 50
0.0
 7
Standard
100
AcDbText
  0
TEXT
  5
c5
330
1F
100
AcDbEntity
  8
text
100
AcDbText
 10
-15853.4865503
 20
10.9510143785
 30
0.0
  40
1.0
  1
PR3:s1 P=1.24E-02 
 50
0.0
 7
Standard
100
AcDbText
  0
TEXT
  5
c6
330
1F
100
AcDbEntity
  8
text
100
AcDbText
 10
-4710.69905415
 20
269.389270877
 30
0.0
  40
1.0
  1
PR3:r1 P=1.24E+02 
 50
0.0
 7
Standard
100
AcDbText
  0
TEXT
  5
c7
330
1F
100
AcDbEntity
  8
text
100
AcDbText
 10
-4608.19917354
 20
271.473026554
 30
0.0
  40
1.0
  1
PR2:s1 P=6.21E-02 
 50
0.0
 7
Standard
100
AcDbText
  0
TEXT
  5
c8
330
1F
100
AcDbEntity
  8
text
100
AcDbText
 10
-19452.1046524
 20
225.745280847
 30
0.0
  40
1.0
  1
PR2:r1 P=1.24E+02 
 50
0.0
 7
Standard
100
AcDbText
  0
TEXT
  5
c9
330
1F
100
AcDbEntity
  8
text
100
AcDbText
 10
-3608.21625334
 20
279.068887214
 30
0.0
  40
1.0
  1
PR2:t1 P=6.21E-02 
 50
0.0
 7
Standard
100
AcDbText
  0
TEXT
  5
ca
330
1F
100
AcDbEntity
  8
text
100
AcDbText
 10
-16853.3712985
 20
27.2486832548
 30
0.0
  40
1.0
  1
PR3:t1 P=1.24E-02 
 50
0.0
 7
Standard
100
AcDbText
  0
TEXT
  5
cb
330
1F
100
AcDbEntity
  8
text
100
AcDbText
 10
48.2244951284
 20
-15683.949322
 30
0.0
  40
1.0
  1
BS:t1 P=1.24E+02 
 50
0.0
 7
Standard
100
AcDbText
  0
TEXT
  5
cc
330
1F
100
AcDbEntity
  8
text
100
AcDbText
 10
48.0337778343
 20
-15783.613893
 30
0.0
  40
1.0
  1
SR3:s1 P=1.24E-02 
 50
0.0
 7
Standard
100
AcDbText
  0
TEXT
  5
cd
330
1F
100
AcDbEntity
  8
text
100
AcDbText
 10
296.265863979
 20
-4595.23922876
 30
0.0
  40
1.0
  1
SR3:r1 P=1.24E+02 
 50
0.0
 7
Standard
100
AcDbText
  0
TEXT
  5
ce
330
1F
100
AcDbEntity
  8
text
100
AcDbText
 10
298.28535837
 20
-4492.6181389
 30
0.0
  40
1.0
  1
SR2:s1 P=6.21E-02 
 50
0.0
 7
Standard
100
AcDbText
  0
TEXT
  5
cf
330
1F
100
AcDbEntity
  8
text
100
AcDbText
 10
266.302209292
 20
-19316.4549726
 30
0.0
  40
1.0
  1
SR2:r1 P=1.24E+02 
 50
0.0
 7
Standard
100
AcDbText
  0
TEXT
  5
d0
330
1F
100
AcDbEntity
  8
text
100
AcDbText
 10
336.327740805
 20
-3493.32489317
 30
0.0
  40
1.0
  1
SR2:t1 P=6.21E-02 
 50
0.0
 7
Standard
100
AcDbText
  0
TEXT
  5
d1
330
1F
100
AcDbEntity
  8
text
100
AcDbText
 10
33.8809567068
 20
-16783.5250131
 30
0.0
  40
1.0
  1
SR3:t1 P=1.24E-02 
 50
0.0
 7
Standard
100
AcDbText
  0
TEXT
  5
d2
330
1F
100
AcDbEntity
  8
text
100
AcDbText
 10
106.711190595
 20
115.690983319
 30
0.0
  40
1.0
  1
ITMY:r3 P=1.24E-01 
 50
0.0
 7
Standard
100
AcDbText
  0
TEXT
  5
d3
330
1F
100
AcDbEntity
  8
text
100
AcDbText
 10
129.059629359
 20
27.3486030427
 30
0.0
  40
1.0
  1
BS:s1 P=6.19E-02 
 50
0.0
 7
Standard
100
AcDbText
  0
TEXT
  5
d4
330
1F
100
AcDbEntity
  8
text
100
AcDbText
 10
-19451.9231729
 20
161.330709974
 30
0.0
  40
1.0
  1
BS:r1 P=6.19E-02 
 50
0.0
 7
Standard
100
AcDbText
  0
TEXT
  5
d5
330
1F
100
AcDbEntity
  8
text
100
AcDbText
 10
-4710.90783932
 20
293.978088511
 30
0.0
  40
1.0
  1
PRM:r1 P=5.57E-02 
 50
0.0
 7
Standard
100
AcDbText
  0
TEXT
  5
d6
330
1F
100
AcDbEntity
  8
text
100
AcDbText
 10
-19452.2391041
 20
273.423248182
 30
0.0
  40
1.0
  1
PR2:r1 P=5.57E-02 
 50
0.0
 7
Standard
100
AcDbText
  0
TEXT
  5
d7
330
1F
100
AcDbEntity
  8
text
100
AcDbText
 10
-4710.81672289
 20
337.447721735
 30
0.0
  40
1.0
  1
PRM:r1 P=5.01E-02 
 50
0.0
 7
Standard
100
AcDbText
  0
TEXT
  5
d8
330
1F
100
AcDbEntity
  8
text
100
AcDbText
 10
-5690.58839682
 20
357.582049904
 30
0.0
  40
1.0
  1
PR2:r1 P=5.01E-02 
 50
0.0
 7
Standard
100
AcDbText
  0
TEXT
  5
d9
330
1F
100
AcDbEntity
  8
text
100
AcDbText
 10
200.396417527
 20
-19316.3006647
 30
0.0
  40
1.0
  1
BS:t1 P=6.19E-02 
 50
0.0
 7
Standard
100
AcDbText
  0
TEXT
  5
da
330
1F
100
AcDbEntity
  8
text
100
AcDbText
 10
319.284155366
 20
-4595.45077205
 30
0.0
  40
1.0
  1
SRM:r1 P=5.24E-02 
 50
0.0
 7
Standard
100
AcDbText
  0
TEXT
  5
db
330
1F
100
AcDbEntity
  8
text
100
AcDbText
 10
303.854608663
 20
-19316.5344958
 30
0.0
  40
1.0
  1
SR2:r1 P=5.24E-02 
 50
0.0
 7
Standard
100
AcDbText
  0
TEXT
  5
dc
330
1F
100
AcDbEntity
  8
text
100
AcDbText
 10
346.292303723
 20
-4595.4612169
 30
0.0
  40
1.0
  1
SRM:r1 P=4.43E-02 
 50
0.0
 7
Standard
100
AcDbText
  0
TEXT
  5
dd
330
1F
100
AcDbEntity
  8
text
100
AcDbText
 10
359.878279834
 20
-5575.38516136
 30
0.0
  40
1.0
  1
SR2:r1 P=4.43E-02 
 50
0.0
 7
Standard
100
AcDbText
  0
TEXT
  5
de
330
1F
100
AcDbEntity
  8
text
100
AcDbText
 10
-17.3934419074
 20
2988280.10571
 30
0.0
  40
1.0
  1
ITMY:t1 P=9.99E-01 
 50
0.0
 7
Standard
100
AcDbText
  0
TEXT
  5
df
330
1F
100
AcDbEntity
  8
text
100
AcDbText
 10
67.0692290385
 20
1053.4059949
 30
0.0
  40
1.0
  1
BS:r2 P=1.25E-02 
 50
0.0
 7
Standard
100
AcDbText
  0
TEXT
  5
e0
330
1F
100
AcDbEntity
  8
text
100
AcDbText
 10
53204.050502
 20
-6.70953371819
 30
0.0
  40
1.0
  1
ITMX:s3 P=1.24E-01 
 50
0.0
 7
Standard
100
AcDbText
  0
TEXT
  5
e1
330
1F
100
AcDbEntity
  8
text
100
AcDbText
 10
53124.0496025
 20
-8.57783899857
 30
0.0
  40
1.0
  1
ITMX:s2 P=2.49E+02 
 50
0.0
 7
Standard
100
AcDbText
  0
TEXT
  5
e2
330
1F
100
AcDbEntity
  8
text
100
AcDbText
 10
53204.049028
 20
-6.57783899857
 30
0.0
  40
1.0
  1
ITMX:s1 P=2.50E+02 
 50
0.0
 7
Standard
100
AcDbText
  0
TEXT
  5
e3
330
1F
100
AcDbEntity
  8
text
100
AcDbText
 10
53104.049274
 20
-6.58112899877
 30
0.0
  40
1.0
  1
BS:t1 P=2.50E+02 
 50
0.0
 7
Standard
100
AcDbText
  0
TEXT
  5
e4
330
1F
100
AcDbEntity
  8
text
100
AcDbText
 10
53124.0508409
 20
-8.85586017968
 30
0.0
  40
1.0
  1
ITMX:s4 P=1.24E-01 
 50
0.0
 7
Standard
100
AcDbText
  0
TEXT
  5
e5
330
1F
100
AcDbEntity
  8
text
100
AcDbText
 10
191.38615203
 20
86.273724977
 30
0.0
  40
1.0
  1
ITMX:r1 P=1.25E-01 
 50
0.0
 7
Standard
100
AcDbText
  0
TEXT
  5
e6
330
1F
100
AcDbEntity
  8
text
100
AcDbText
 10
-53.5901533113
 20
-66.6163518291
 30
0.0
  40
1.0
  1
BS:s3 P=1.24E-02 
 50
0.0
 7
Standard
100
AcDbText
  0
TEXT
  5
e7
330
1F
100
AcDbEntity
  8
text
100
AcDbText
 10
23.1823612288
 20
-78.1959496704
 30
0.0
  40
1.0
  1
BS:s2 P=1.24E+02 
 50
0.0
 7
Standard
100
AcDbText
  0
TEXT
  5
e8
330
1F
100
AcDbEntity
  8
text
100
AcDbText
 10
9.34756693716
 20
-3.69093706107
 30
0.0
  40
1.0
  1
BS:s1 P=2.49E+02 
 50
0.0
 7
Standard
100
AcDbText
  0
TEXT
  5
e9
330
1F
100
AcDbEntity
  8
text
100
AcDbText
 10
98.2167207961
 20
-26.0197631794
 30
0.0
  40
1.0
  1
ITMX:r2 P=2.49E+02 
 50
0.0
 7
Standard
100
AcDbText
  0
TEXT
  5
ea
330
1F
100
AcDbEntity
  8
text
100
AcDbText
 10
33.3552706138
 20
-15683.7925365
 30
0.0
  40
1.0
  1
BS:r1 P=2.49E-02 
 50
0.0
 7
Standard
100
AcDbText
  0
TEXT
  5
eb
330
1F
100
AcDbEntity
  8
text
100
AcDbText
 10
239.192361733
 20
-4593.99193947
 30
0.0
  40
1.0
  1
SR3:r1 P=2.49E-02 
 50
0.0
 7
Standard
100
AcDbText
  0
TEXT
  5
ec
330
1F
100
AcDbEntity
  8
text
100
AcDbText
 10
197.60419332
 20
-5573.08838936
 30
0.0
  40
1.0
  1
SR2:r1 P=2.48E-02 
 50
0.0
 7
Standard
100
AcDbText
  0
TEXT
  5
ed
330
1F
100
AcDbEntity
  8
text
100
AcDbText
 10
48.2244950692
 20
-15683.949322
 30
0.0
  40
1.0
  1
BS:r2 P=1.24E+02 
 50
0.0
 7
Standard
100
AcDbText
  0
TEXT
  5
ee
330
1F
100
AcDbEntity
  8
text
100
AcDbText
 10
48.0337777749
 20
-15783.613893
 30
0.0
  40
1.0
  1
SR3:s1 P=1.24E-02 
 50
0.0
 7
Standard
100
AcDbText
  0
TEXT
  5
ef
330
1F
100
AcDbEntity
  8
text
100
AcDbText
 10
296.265863963
 20
-4595.23922876
 30
0.0
  40
1.0
  1
SR3:r1 P=1.24E+02 
 50
0.0
 7
Standard
100
AcDbText
  0
TEXT
  5
f0
330
1F
100
AcDbEntity
  8
text
100
AcDbText
 10
298.285358354
 20
-4492.6181389
 30
0.0
  40
1.0
  1
SR2:s1 P=6.21E-02 
 50
0.0
 7
Standard
100
AcDbText
  0
TEXT
  5
f1
330
1F
100
AcDbEntity
  8
text
100
AcDbText
 10
266.302209171
 20
-19316.4549726
 30
0.0
  40
1.0
  1
SR2:r1 P=1.24E+02 
 50
0.0
 7
Standard
100
AcDbText
  0
TEXT
  5
f2
330
1F
100
AcDbEntity
  8
text
100
AcDbText
 10
336.327740795
 20
-3493.32489318
 30
0.0
  40
1.0
  1
SR2:t1 P=6.21E-02 
 50
0.0
 7
Standard
100
AcDbText
  0
TEXT
  5
f3
330
1F
100
AcDbEntity
  8
text
100
AcDbText
 10
33.8809566455
 20
-16783.5250131
 30
0.0
  40
1.0
  1
SR3:t1 P=1.24E-02 
 50
0.0
 7
Standard
100
AcDbText
  0
TEXT
  5
f4
330
1F
100
AcDbEntity
  8
text
100
AcDbText
 10
-15753.7720417
 20
11.2069756081
 30
0.0
  40
1.0
  1
BS:t1 P=1.24E+02 
 50
0.0
 7
Standard
100
AcDbText
  0
TEXT
  5
f5
330
1F
100
AcDbEntity
  8
text
100
AcDbText
 10
-15853.4865503
 20
10.9510143191
 30
0.0
  40
1.0
  1
PR3:s1 P=1.24E-02 
 50
0.0
 7
Standard
100
AcDbText
  0
TEXT
  5
f6
330
1F
100
AcDbEntity
  8
text
100
AcDbText
 10
-4710.69905415
 20
269.38927086
 30
0.0
  40
1.0
  1
PR3:r1 P=1.24E+02 
 50
0.0
 7
Standard
100
AcDbText
  0
TEXT
  5
f7
330
1F
100
AcDbEntity
  8
text
100
AcDbText
 10
-4608.19917354
 20
271.473026538
 30
0.0
  40
1.0
  1
PR2:s1 P=6.21E-02 
 50
0.0
 7
Standard
100
AcDbText
  0
TEXT
  5
f8
330
1F
100
AcDbEntity
  8
text
100
AcDbText
 10
-19452.1046524
 20
225.745280728
 30
0.0
  40
1.0
  1
PR2:r1 P=1.24E+02 
 50
0.0
 7
Standard
100
AcDbText
  0
TEXT
  5
f9
330
1F
100
AcDbEntity
  8
text
100
AcDbText
 10
-3608.21625334
 20
279.068887204
 30
0.0
  40
1.0
  1
PR2:t1 P=6.21E-02 
 50
0.0
 7
Standard
100
AcDbText
  0
TEXT
  5
fa
330
1F
100
AcDbEntity
  8
text
100
AcDbText
 10
-16853.3712985
 20
27.2486831933
 30
0.0
  40
1.0
  1
PR3:t1 P=1.24E-02 
 50
0.0
 7
Standard
100
AcDbText
  0
TEXT
  5
fb
330
1F
100
AcDbEntity
  8
text
100
AcDbText
 10
-98.429970042
 20
-162.141938384
 30
0.0
  40
1.0
  1
BS:s2 P=6.19E-02 
 50
0.0
 7
Standard
100
AcDbText
  0
TEXT
  5
fc
330
1F
100
AcDbEntity
  8
text
100
AcDbText
 10
-15.2020958476
 20
-139.052747817
 30
0.0
  40
1.0
  1
ITMX:r3 P=1.24E-01 
 50
0.0
 7
Standard
100
AcDbText
  0
TEXT
  5
fd
330
1F
100
AcDbEntity
  8
text
100
AcDbText
 10
-103.91027818
 20
-116.891593893
 30
0.0
  40
1.0
  1
BS:s1 P=1.24E-01 
 50
0.0
 7
Standard
100
AcDbText
  0
TEXT
  5
fe
330
1F
100
AcDbEntity
  8
text
100
AcDbText
 10
-1103.25996686
 20
-115.541054111
 30
0.0
  40
1.0
  1
BS:t1 P=6.19E-02 
 50
0.0
 7
Standard
100
AcDbText
  0
TEXT
  5
ff
330
1F
100
AcDbEntity
  8
text
100
AcDbText
 10
2991565.24282
 20
-6.57783899857
 30
0.0
  40
1.0
  1
ITMX:t1 P=9.99E-01 
 50
0.0
 7
Standard
100
AcDbText
  0
TEXT
  5
100
330
1F
100
AcDbEntity
  8
text
100
AcDbText
 10
-16853.378403
 20
1.87944069636
 30
0.0
  40
1.0
  1
PR3:t1 P=5.00E-02 
 50
0.0
 7
Standard
100
AcDbText
  0
TEXT
  5
101
330
1F
100
AcDbEntity
  8
text
100
AcDbText
 10
-3608.18143626
 20
257.487698028
 30
0.0
  40
1.0
  1
PR2:t1 P=2.50E-01 
 50
0.0
 7
Standard
100
AcDbText
  0
TEXT
  5
102
330
1F
100
AcDbEntity
  8
text
100
AcDbText
 10
53124.0508409
 20
-8.85586017968
 30
0.0
  40
1.0
  1
ITMX:s3 P=2.48E-01 
 50
0.0
 7
Standard
100
AcDbText
  0
TEXT
  5
103
330
1F
100
AcDbEntity
  8
text
100
AcDbText
 10
53204.050502
 20
-6.70953371819
 30
0.0
  40
1.0
  1
ITMX:s2 P=2.50E-01 
 50
0.0
 7
Standard
100
AcDbText
  0
TEXT
  5
104
330
1F
100
AcDbEntity
  8
text
100
AcDbText
 10
53124.0496025
 20
-8.57783899857
 30
0.0
  40
1.0
  1
ITMX:s1 P=5.00E+02 
 50
0.0
 7
Standard
100
AcDbText
  0
TEXT
  5
105
330
1F
100
AcDbEntity
  8
text
100
AcDbText
 10
53224.049028
 20
-8.57783899857
 30
0.0
  40
1.0
  1
Beam P=1.25E+05 
 50
0.0
 7
Standard
100
AcDbText
  0
TEXT
  5
106
330
1F
100
AcDbEntity
  8
text
100
AcDbText
 10
2991565.24282
 20
-6.57783899857
 30
0.0
  40
1.0
  1
ITMX:r1 P=1.24E+05 
 50
0.0
 7
Standard
100
AcDbText
  0
TEXT
  5
107
330
1F
100
AcDbEntity
  8
text
100
AcDbText
 10
-98.429970042
 20
-162.141938384
 30
0.0
  40
1.0
  1
BS:s2 P=1.24E-01 
 50
0.0
 7
Standard
100
AcDbText
  0
TEXT
  5
108
330
1F
100
AcDbEntity
  8
text
100
AcDbText
 10
-15.2020958476
 20
-139.052747817
 30
0.0
  40
1.0
  1
ITMX:t2 P=2.48E-01 
 50
0.0
 7
Standard
100
AcDbText
  0
TEXT
  5
109
330
1F
100
AcDbEntity
  8
text
100
AcDbText
 10
-103.91027818
 20
-116.891593893
 30
0.0
  40
1.0
  1
BS:s1 P=2.48E-01 
 50
0.0
 7
Standard
100
AcDbText
  0
TEXT
  5
10a
330
1F
100
AcDbEntity
  8
text
100
AcDbText
 10
-1103.25996686
 20
-115.541054111
 30
0.0
  40
1.0
  1
BS:t1 P=1.24E-01 
 50
0.0
 7
Standard
100
AcDbText
  0
TEXT
  5
10b
330
1F
100
AcDbEntity
  8
text
100
AcDbText
 10
-53.5901533113
 20
-66.6163518291
 30
0.0
  40
1.0
  1
BS:s3 P=2.50E-02 
 50
0.0
 7
Standard
100
AcDbText
  0
TEXT
  5
10c
330
1F
100
AcDbEntity
  8
text
100
AcDbText
 10
23.1823612288
 20
-78.1959496704
 30
0.0
  40
1.0
  1
BS:s2 P=2.50E+02 
 50
0.0
 7
Standard
100
AcDbText
  0
TEXT
  5
10d
330
1F
100
AcDbEntity
  8
text
100
AcDbText
 10
9.34756693715
 20
-3.69093706108
 30
0.0
  40
1.0
  1
BS:s1 P=5.00E+02 
 50
0.0
 7
Standard
100
AcDbText
  0
TEXT
  5
10e
330
1F
100
AcDbEntity
  8
text
100
AcDbText
 10
98.216720796
 20
-26.0197631794
 30
0.0
  40
1.0
  1
ITMX:t1 P=5.00E+02 
 50
0.0
 7
Standard
100
AcDbText
  0
TEXT
  5
10f
330
1F
100
AcDbEntity
  8
text
100
AcDbText
 10
-39.6047888442
 20
-140.757525651
 30
0.0
  40
1.0
  1
BS:s4 P=1.25E-02 
 50
0.0
 7
Standard
100
AcDbText
  0
TEXT
  5
110
330
1F
100
AcDbEntity
  8
text
100
AcDbText
 10
33.3552706138
 20
-15683.7925365
 30
0.0
  40
1.0
  1
BS:r1 P=5.00E-02 
 50
0.0
 7
Standard
100
AcDbText
  0
TEXT
  5
111
330
1F
100
AcDbEntity
  8
text
100
AcDbText
 10
239.192361733
 20
-4593.99193947
 30
0.0
  40
1.0
  1
SR3:r1 P=5.00E-02 
 50
0.0
 7
Standard
100
AcDbText
  0
TEXT
  5
112
330
1F
100
AcDbEntity
  8
text
100
AcDbText
 10
197.60419332
 20
-5573.08838936
 30
0.0
  40
1.0
  1
SR2:r1 P=4.99E-02 
 50
0.0
 7
Standard
100
AcDbText
  0
TEXT
  5
113
330
1F
100
AcDbEntity
  8
text
100
AcDbText
 10
48.2244950692
 20
-15683.949322
 30
0.0
  40
1.0
  1
BS:r2 P=2.50E+02 
 50
0.0
 7
Standard
100
AcDbText
  0
TEXT
  5
114
330
1F
100
AcDbEntity
  8
text
100
AcDbText
 10
48.0337777749
 20
-15783.613893
 30
0.0
  40
1.0
  1
SR3:s1 P=2.50E-02 
 50
0.0
 7
Standard
100
AcDbText
  0
TEXT
  5
115
330
1F
100
AcDbEntity
  8
text
100
AcDbText
 10
296.265863963
 20
-4595.23922876
 30
0.0
  40
1.0
  1
SR3:r1 P=2.50E+02 
 50
0.0
 7
Standard
100
AcDbText
  0
TEXT
  5
116
330
1F
100
AcDbEntity
  8
text
100
AcDbText
 10
298.285358354
 20
-4492.6181389
 30
0.0
  40
1.0
  1
SR2:s1 P=1.25E-01 
 50
0.0
 7
Standard
100
AcDbText
  0
TEXT
  5
117
330
1F
100
AcDbEntity
  8
text
100
AcDbText
 10
266.302209171
 20
-19316.4549726
 30
0.0
  40
1.0
  1
SR2:r1 P=2.50E+02 
 50
0.0
 7
Standard
100
AcDbText
  0
TEXT
  5
118
330
1F
100
AcDbEntity
  8
text
100
AcDbText
 10
336.327740795
 20
-3493.32489318
 30
0.0
  40
1.0
  1
SR2:t1 P=1.25E-01 
 50
0.0
 7
Standard
100
AcDbText
  0
TEXT
  5
119
330
1F
100
AcDbEntity
  8
text
100
AcDbText
 10
33.8809566455
 20
-16783.5250131
 30
0.0
  40
1.0
  1
SR3:t1 P=2.50E-02 
 50
0.0
 7
Standard
100
AcDbText
  0
TEXT
  5
11a
330
1F
100
AcDbEntity
  8
text
100
AcDbText
 10
62.7178623206
 20
-15684.0936947
 30
0.0
  40
1.0
  1
BS:r3 P=1.25E-02 
 50
0.0
 7
Standard
100
AcDbText
  0
TEXT
  5
11b
330
1F
100
AcDbEntity
  8
text
100
AcDbText
 10
353.137502433
 20
-4595.39546216
 30
0.0
  40
1.0
  1
SR3:r1 P=1.25E-02 
 50
0.0
 7
Standard
100
AcDbText
  0
TEXT
  5
11c
330
1F
100
AcDbEntity
  8
text
100
AcDbText
 10
394.721864156
 20
-5574.60430844
 30
0.0
  40
1.0
  1
SR2:r1 P=1.25E-02 
 50
0.0
 7
Standard
100
AcDbText
  0
TEXT
  5
11d
330
1F
100
AcDbEntity
  8
text
100
AcDbText
 10
-15753.9444851
 20
26.5177316089
 30
0.0
  40
1.0
  1
BS:t2 P=1.25E-02 
 50
0.0
 7
Standard
100
AcDbText
  0
TEXT
  5
11e
330
1F
100
AcDbEntity
  8
text
100
AcDbText
 10
-4710.91556761
 20
326.272196306
 30
0.0
  40
1.0
  1
PR3:r1 P=1.25E-02 
 50
0.0
 7
Standard
100
AcDbText
  0
TEXT
  5
11f
330
1F
100
AcDbEntity
  8
text
100
AcDbText
 10
-5690.21845687
 20
362.075259628
 30
0.0
  40
1.0
  1
PR2:r1 P=1.25E-02 
 50
0.0
 7
Standard
100
AcDbText
  0
TEXT
  5
120
330
1F
100
AcDbEntity
  8
text
100
AcDbText
 10
-15753.7720417
 20
11.2069756081
 30
0.0
  40
1.0
  1
BS:t1 P=2.50E+02 
 50
0.0
 7
Standard
100
AcDbText
  0
TEXT
  5
121
330
1F
100
AcDbEntity
  8
text
100
AcDbText
 10
-15853.4865503
 20
10.951014319
 30
0.0
  40
1.0
  1
PR3:s1 P=2.50E-02 
 50
0.0
 7
Standard
100
AcDbText
  0
TEXT
  5
122
330
1F
100
AcDbEntity
  8
text
100
AcDbText
 10
-4710.69905415
 20
269.38927086
 30
0.0
  40
1.0
  1
PR3:r1 P=2.50E+02 
 50
0.0
 7
Standard
100
AcDbText
  0
TEXT
  5
123
330
1F
100
AcDbEntity
  8
text
100
AcDbText
 10
-4608.19917354
 20
271.473026538
 30
0.0
  40
1.0
  1
PR2:s1 P=1.25E-01 
 50
0.0
 7
Standard
100
AcDbText
  0
TEXT
  5
124
330
1F
100
AcDbEntity
  8
text
100
AcDbText
 10
-19452.1046524
 20
225.745280728
 30
0.0
  40
1.0
  1
PR2:r1 P=2.50E+02 
 50
0.0
 7
Standard
100
AcDbText
  0
TEXT
  5
125
330
1F
100
AcDbEntity
  8
text
100
AcDbText
 10
-3608.21625334
 20
279.068887204
 30
0.0
  40
1.0
  1
PR2:t1 P=1.25E-01 
 50
0.0
 7
Standard
100
AcDbText
  0
TEXT
  5
126
330
1F
100
AcDbEntity
  8
text
100
AcDbText
 10
-16853.3712985
 20
27.2486831933
 30
0.0
  40
1.0
  1
PR3:t1 P=2.50E-02 
 50
0.0
 7
Standard
100
AcDbText
  0
TEXT
  5
127
330
1F
100
AcDbEntity
  8
text
100
AcDbText
 10
-15.1154253842
 20
49838.9137313
 30
0.0
  40
1.0
  1
ITMY:s3 P=2.48E-01 
 50
0.0
 7
Standard
100
AcDbText
  0
TEXT
  5
128
330
1F
100
AcDbEntity
  8
text
100
AcDbText
 10
-17.2617518457
 20
49918.9133924
 30
0.0
  40
1.0
  1
ITMY:s2 P=2.50E-01 
 50
0.0
 7
Standard
100
AcDbText
  0
TEXT
  5
129
330
1F
100
AcDbEntity
  8
text
100
AcDbText
 10
-15.3934465654
 20
49838.9124928
 30
0.0
  40
1.0
  1
ITMY:s1 P=5.00E+02 
 50
0.0
 7
Standard
100
AcDbText
  0
TEXT
  5
12a
330
1F
100
AcDbEntity
  8
text
100
AcDbText
 10
-15.3934465654
 20
49938.9119184
 30
0.0
  40
1.0
  1
Beam P=1.25E+05 
 50
0.0
 7
Standard
100
AcDbText
  0
TEXT
  5
12b
330
1F
100
AcDbEntity
  8
text
100
AcDbText
 10
-17.3934465652
 20
2988280.10571
 30
0.0
  40
1.0
  1
ITMY:r1 P=1.24E+05 
 50
0.0
 7
Standard
100
AcDbText
  0
TEXT
  5
12c
330
1F
100
AcDbEntity
  8
text
100
AcDbText
 10
106.71118627
 20
115.690978996
 30
0.0
  40
1.0
  1
ITMY:t2 P=2.48E-01 
 50
0.0
 7
Standard
100
AcDbText
  0
TEXT
  5
12d
330
1F
100
AcDbEntity
  8
text
100
AcDbText
 10
129.059625031
 20
27.3485987289
 30
0.0
  40
1.0
  1
BS:s1 P=1.24E-01 
 50
0.0
 7
Standard
100
AcDbText
  0
TEXT
  5
12e
330
1F
100
AcDbEntity
  8
text
100
AcDbText
 10
-19451.9231729
 20
161.330705603
 30
0.0
  40
1.0
  1
BS:r1 P=1.24E-01 
 50
0.0
 7
Standard
100
AcDbText
  0
TEXT
  5
12f
330
1F
100
AcDbEntity
  8
text
100
AcDbText
 10
-19549.6754157
 20
161.453881987
 30
0.0
  40
1.0
  1
PRM:s1 P=1.24E-02 
 50
0.0
 7
Standard
100
AcDbText
  0
TEXT
  5
130
330
1F
100
AcDbEntity
  8
text
100
AcDbText
 10
-4710.90783929
 20
293.978084395
 30
0.0
  40
1.0
  1
PRM:r1 P=1.12E-01 
 50
0.0
 7
Standard
100
AcDbText
  0
TEXT
  5
131
330
1F
100
AcDbEntity
  8
text
100
AcDbText
 10
-19452.239104
 20
273.423204848
 30
0.0
  40
1.0
  1
PR2:r1 P=1.11E-01 
 50
0.0
 7
Standard
100
AcDbText
  0
TEXT
  5
132
330
1F
100
AcDbEntity
  8
text
100
AcDbText
 10
-19553.8934749
 20
273.252913582
 30
0.0
  40
1.0
  1
PRM:s1 P=1.11E-02 
 50
0.0
 7
Standard
100
AcDbText
  0
TEXT
  5
133
330
1F
100
AcDbEntity
  8
text
100
AcDbText
 10
-4710.81672361
 20
337.447641943
 30
0.0
  40
1.0
  1
PRM:r1 P=1.00E-01 
 50
0.0
 7
Standard
100
AcDbText
  0
TEXT
  5
134
330
1F
100
AcDbEntity
  8
text
100
AcDbText
 10
-5690.58839869
 20
357.581916282
 30
0.0
  40
1.0
  1
PR2:r1 P=1.00E-01 
 50
0.0
 7
Standard
100
AcDbText
  0
TEXT
  5
135
330
1F
100
AcDbEntity
  8
text
100
AcDbText
 10
-20553.8057163
 20
287.582262416
 30
0.0
  40
1.0
  1
PRM:t1 P=1.11E-02 
 50
0.0
 7
Standard
100
AcDbText
  0
TEXT
  5
136
330
1F
100
AcDbEntity
  8
text
100
AcDbText
 10
-20549.5226462
 20
179.823288586
 30
0.0
  40
1.0
  1
PRM:t1 P=1.24E-02 
 50
0.0
 7
Standard
100
AcDbText
  0
TEXT
  5
137
330
1F
100
AcDbEntity
  8
text
100
AcDbText
 10
200.396413149
 20
-19316.3006647
 30
0.0
  40
1.0
  1
BS:t1 P=1.24E-01 
 50
0.0
 7
Standard
100
AcDbText
  0
TEXT
  5
138
330
1F
100
AcDbEntity
  8
text
100
AcDbText
 10
200.59094857
 20
-19418.5762725
 30
0.0
  40
1.0
  1
SRM:s1 P=1.90E-02 
 50
0.0
 7
Standard
100
AcDbText
  0
TEXT
  5
139
330
1F
100
AcDbEntity
  8
text
100
AcDbText
 10
319.284151243
 20
-4595.45077203
 30
0.0
  40
1.0
  1
SRM:r1 P=1.05E-01 
 50
0.0
 7
Standard
100
AcDbText
  0
TEXT
  5
13a
330
1F
100
AcDbEntity
  8
text
100
AcDbText
 10
303.854564131
 20
-19316.5344957
 30
0.0
  40
1.0
  1
SR2:r1 P=1.05E-01 
 50
0.0
 7
Standard
100
AcDbText
  0
TEXT
  5
13b
330
1F
100
AcDbEntity
  8
text
100
AcDbText
 10
303.712121417
 20
-19415.2050243
 30
0.0
  40
1.0
  1
SRM:s1 P=1.61E-02 
 50
0.0
 7
Standard
100
AcDbText
  0
TEXT
  5
13c
330
1F
100
AcDbEntity
  8
text
100
AcDbText
 10
346.292221619
 20
-4595.46121726
 30
0.0
  40
1.0
  1
SRM:r1 P=8.87E-02 
 50
0.0
 7
Standard
100
AcDbText
  0
TEXT
  5
13d
330
1F
100
AcDbEntity
  8
text
100
AcDbText
 10
359.878140747
 20
-5575.38516243
 30
0.0
  40
1.0
  1
SR2:r1 P=8.87E-02 
 50
0.0
 7
Standard
100
AcDbText
  0
TEXT
  5
13e
330
1F
100
AcDbEntity
  8
text
100
AcDbText
 10
287.007658971
 20
-20415.0797112
 30
0.0
  40
1.0
  1
SRM:t1 P=1.61E-02 
 50
0.0
 7
Standard
100
AcDbText
  0
TEXT
  5
13f
330
1F
100
AcDbEntity
  8
text
100
AcDbText
 10
188.507863736
 20
-20418.5162537
 30
0.0
  40
1.0
  1
SRM:t1 P=1.90E-02 
 50
0.0
 7
Standard
100
AcDbText
  0
TEXT
  5
140
330
1F
100
AcDbEntity
  8
text
100
AcDbText
 10
-39.6047930842
 20
-140.757529877
 30
0.0
  40
1.0
  1
BS:s3 P=6.25E-03 
 50
0.0
 7
Standard
100
AcDbText
  0
TEXT
  5
141
330
1F
100
AcDbEntity
  8
text
100
AcDbText
 10
-53.5901575488
 20
-66.6163560646
 30
0.0
  40
1.0
  1
BS:s2 P=2.50E-02 
 50
0.0
 7
Standard
100
AcDbText
  0
TEXT
  5
142
330
1F
100
AcDbEntity
  8
text
100
AcDbText
 10
23.1823569821
 20
-78.1959539033
 30
0.0
  40
1.0
  1
BS:s1 P=2.50E+02 
 50
0.0
 7
Standard
100
AcDbText
  0
TEXT
  5
143
330
1F
100
AcDbEntity
  8
text
100
AcDbText
 10
0.996707879529
 20
10.0003263341
 30
0.0
  40
1.0
  1
ITMY:t1 P=5.00E+02 
 50
0.0
 7
Standard
100
AcDbText
  0
TEXT
  5
144
330
1F
100
AcDbEntity
  8
text
100
AcDbText
 10
-15753.7720416
 20
11.2069713626
 30
0.0
  40
1.0
  1
BS:r1 P=2.50E+02 
 50
0.0
 7
Standard
100
AcDbText
  0
TEXT
  5
145
330
1F
100
AcDbEntity
  8
text
100
AcDbText
 10
-15853.4865501
 20
10.9510100693
 30
0.0
  40
1.0
  1
PR3:s1 P=2.50E-02 
 50
0.0
 7
Standard
100
AcDbText
  0
TEXT
  5
146
330
1F
100
AcDbEntity
  8
text
100
AcDbText
 10
-4710.69905414
 20
269.389270383
 30
0.0
  40
1.0
  1
PR3:r1 P=2.50E+02 
 50
0.0
 7
Standard
100
AcDbText
  0
TEXT
  5
147
330
1F
100
AcDbEntity
  8
text
100
AcDbText
 10
-4608.19917351
 20
271.473026091
 30
0.0
  40
1.0
  1
PR2:s1 P=1.25E-01 
 50
0.0
 7
Standard
100
AcDbText
  0
TEXT
  5
148
330
1F
100
AcDbEntity
  8
text
100
AcDbText
 10
-19452.1046524
 20
225.745280733
 30
0.0
  40
1.0
  1
PR2:r1 P=2.50E+02 
 50
0.0
 7
Standard
100
AcDbText
  0
TEXT
  5
149
330
1F
100
AcDbEntity
  8
text
100
AcDbText
 10
-3608.21625332
 20
279.068887165
 30
0.0
  40
1.0
  1
PR2:t1 P=1.25E-01 
 50
0.0
 7
Standard
100
AcDbText
  0
TEXT
  5
14a
330
1F
100
AcDbEntity
  8
text
100
AcDbText
 10
-16853.3712983
 20
27.2486788671
 30
0.0
  40
1.0
  1
PR3:t1 P=2.50E-02 
 50
0.0
 7
Standard
100
AcDbText
  0
TEXT
  5
14b
330
1F
100
AcDbEntity
  8
text
100
AcDbText
 10
-15753.9444851
 20
26.5177273487
 30
0.0
  40
1.0
  1
BS:r2 P=1.25E-02 
 50
0.0
 7
Standard
100
AcDbText
  0
TEXT
  5
14c
330
1F
100
AcDbEntity
  8
text
100
AcDbText
 10
-4710.91556762
 20
326.272195827
 30
0.0
  40
1.0
  1
PR3:r1 P=1.25E-02 
 50
0.0
 7
Standard
100
AcDbText
  0
TEXT
  5
14d
330
1F
100
AcDbEntity
  8
text
100
AcDbText
 10
-5690.21845687
 20
362.075259186
 30
0.0
  40
1.0
  1
PR2:r1 P=1.25E-02 
 50
0.0
 7
Standard
100
AcDbText
  0
TEXT
  5
14e
330
1F
100
AcDbEntity
  8
text
100
AcDbText
 10
48.2244908164
 20
-15683.949322
 30
0.0
  40
1.0
  1
BS:t1 P=2.50E+02 
 50
0.0
 7
Standard
100
AcDbText
  0
TEXT
  5
14f
330
1F
100
AcDbEntity
  8
text
100
AcDbText
 10
48.033773517
 20
-15783.6138931
 30
0.0
  40
1.0
  1
SR3:s1 P=2.50E-02 
 50
0.0
 7
Standard
100
AcDbText
  0
TEXT
  5
150
330
1F
100
AcDbEntity
  8
text
100
AcDbText
 10
296.2658635
 20
-4595.23922876
 30
0.0
  40
1.0
  1
SR3:r1 P=2.50E+02 
 50
0.0
 7
Standard
100
AcDbText
  0
TEXT
  5
151
330
1F
100
AcDbEntity
  8
text
100
AcDbText
 10
298.28535792
 20
-4492.61813891
 30
0.0
  40
1.0
  1
SR2:s1 P=1.25E-01 
 50
0.0
 7
Standard
100
AcDbText
  0
TEXT
  5
152
330
1F
100
AcDbEntity
  8
text
100
AcDbText
 10
266.302209209
 20
-19316.4549726
 30
0.0
  40
1.0
  1
SR2:r1 P=2.50E+02 
 50
0.0
 7
Standard
100
AcDbText
  0
TEXT
  5
153
330
1F
100
AcDbEntity
  8
text
100
AcDbText
 10
336.327740771
 20
-3493.3248932
 30
0.0
  40
1.0
  1
SR2:t1 P=1.25E-01 
 50
0.0
 7
Standard
100
AcDbText
  0
TEXT
  5
154
330
1F
100
AcDbEntity
  8
text
100
AcDbText
 10
33.8809523111
 20
-16783.5250132
 30
0.0
  40
1.0
  1
SR3:t1 P=2.50E-02 
 50
0.0
 7
Standard
100
AcDbText
  0
TEXT
  5
155
330
1F
100
AcDbEntity
  8
text
100
AcDbText
 10
-6.33747082042
 20
23081.9796675
 30
0.0
  40
1.0
  1
ITMY:s3 P=3.96E-11 
 50
0.0
 7
Standard
100
AcDbText
  0
TEXT
  5
156
330
1F
100
AcDbEntity
  8
text
100
AcDbText
 10
58.7759642203
 20
-42.710496134
 30
0.0
  40
1.0
  1
BS:s1 P=1.98E-11 
 50
0.0
 7
Standard
100
AcDbText
  0
TEXT
  5
157
330
1F
100
AcDbEntity
  8
text
100
AcDbText
 10
-8.4683863965
 20
23211.976605
 30
0.0
  40
1.0
  1
ITMY:s2 P=3.99E-11 
 50
0.0
 7
Standard
100
AcDbText
  0
TEXT
  5
158
330
1F
100
AcDbEntity
  8
text
100
AcDbText
 10
36.4980526417
 20
45.5026637434
 30
0.0
  40
1.0
  1
ITMY:t2 P=3.96E-11 
 50
0.0
 7
Standard
100
AcDbText
  0
TEXT
  5
159
330
1F
100
AcDbEntity
  8
text
100
AcDbText
 10
-4710.91297418
 20
293.033998185
 30
0.0
  40
1.0
  1
PR3:r1 P=1.98E-11 
 50
0.0
 7
Standard
100
AcDbText
  0
TEXT
  5
15a
330
1F
100
AcDbEntity
  8
text
100
AcDbText
 10
33.355268493
 20
-15683.7925365
 30
0.0
  40
1.0
  1
BS:r1 P=7.98E-12 
 50
0.0
 7
Standard
100
AcDbText
  0
TEXT
  5
15b
330
1F
100
AcDbEntity
  8
text
100
AcDbText
 10
-15754.3708126
 20
70.9085260462
 30
0.0
  40
1.0
  1
BS:r1 P=1.98E-11 
 50
0.0
 7
Standard
100
AcDbText
  0
TEXT
  5
15c
330
1F
100
AcDbEntity
  8
text
100
AcDbText
 10
-19690.2630657
 20
429.882895582
 30
0.0
  40
1.0
  1
PR2:r1 P=1.98E-11 
 50
0.0
 7
Standard
100
AcDbText
  0
TEXT
  5
15d
330
1F
100
AcDbEntity
  8
text
100
AcDbText
 10
239.192361503
 20
-4593.99193947
 30
0.0
  40
1.0
  1
SR3:r1 P=7.98E-12 
 50
0.0
 7
Standard
100
AcDbText
  0
TEXT
  5
15e
330
1F
100
AcDbEntity
  8
text
100
AcDbText
 10
-249.500094818
 20
-15674.923429
 30
0.0
  40
1.0
  1
SR2:r1 P=7.97E-12 
 50
0.0
 7
Standard
100
AcDbText
  0
TEXT
  5
15f
330
1F
100
AcDbEntity
  8
text
100
AcDbText
 10
-19549.5901964
 20
214.074999379
 30
0.0
  40
25.0
  1
PRM
 50
0.0
 7
Standard
100
AcDbText
  0
TEXT
  5
160
330
1F
100
AcDbEntity
  8
text
100
AcDbText
 10
3026507.10965
 20
-35.1307284835
 30
0.0
  40
37.5
  1
ETMX
 50
0.0
 7
Standard
100
AcDbText
  0
TEXT
  5
161
330
1F
100
AcDbEntity
  8
text
100
AcDbText
 10
-82.5905570882
 20
3023278.22254
 30
0.0
  40
37.5
  1
ETMY
 50
0.0
 7
Standard
100
AcDbText
  0
TEXT
  5
162
330
1F
100
AcDbEntity
  8
text
100
AcDbText
 10
-4685.64247562
 20
256.804550668
 30
0.0
  40
25.0
  1
PR2
 50
0.0
 7
Standard
100
AcDbText
  0
TEXT
  5
163
330
1F
100
AcDbEntity
  8
text
100
AcDbText
 10
227.671145199
 20
-19388.9355913
 30
0.0
  40
25.0
  1
SRM
 50
0.0
 7
Standard
100
AcDbText
  0
TEXT
  5
164
330
1F
100
AcDbEntity
  8
text
100
AcDbText
 10
260.640858953
 20
-4545.15181384
 30
0.0
  40
25.0
  1
SR2
 50
0.0
 7
Standard
100
AcDbText
  0
TEXT
  5
165
330
1F
100
AcDbEntity
  8
text
100
AcDbText
 10
9.21471583871
 20
-15756.1344271
 30
0.0
  40
25.0
  1
SR3
 50
0.0
 7
Standard
100
AcDbText
  0
TEXT
  5
166
330
1F
100
AcDbEntity
  8
text
100
AcDbText
 10
-15850.9545987
 20
-0.841698690765
 30
0.0
  40
25.0
  1
PR3
 50
0.0
 7
Standard
100
AcDbText
  0
TEXT
  5
167
330
1F
100
AcDbEntity
  8
text
100
AcDbText
 10
8.27796505273
 20
-38.2905760365
 30
0.0
  40
20.0
  1
BS
 50
0.0
 7
Standard
100
AcDbText
  0
TEXT
  5
168
330
1F
100
AcDbEntity
  8
text
100
AcDbText
 10
26357.1160223
 20
-35.1307284905
 30
0.0
  40
37.5
  1
ITMX
 50
0.0
 7
Standard
100
AcDbText
  0
TEXT
  5
169
330
1F
100
AcDbEntity
  8
text
100
AcDbText
 10
-82.5905570733
 20
23128.2289127
 30
0.0
  40
37.5
  1
ITMY
 50
0.0
 7
Standard
100
AcDbText
  0
LINE
  5
16b
330
1F
100
AcDbEntity
  8
main_beam
100
AcDbLine
 10
-19462.1074509
 20
226.716889076
 30
0.0
  11
-4700.67856835
 21
268.621244598
 31
0.0
  0
LINE
  5
16c
330
1F
100
AcDbEntity
  8
main_beam
100
AcDbLine
 10
-4700.67856835
 20
268.621244598
 30
0.0
  11
-15763.7712638
 21
12.2147239093
 31
0.0
  0
LINE
  5
16d
330
1F
100
AcDbEntity
  8
main_beam
100
AcDbLine
 10
2.1237376302e-06
 20
2.12279230305e-06
 30
0.0
  11
88.2163923426
 21
-25.0230531796
 31
0.0
  0
LINE
  5
16e
330
1F
100
AcDbEntity
  8
main_beam
100
AcDbLine
 10
-15763.7712638
 20
12.2147239093
 30
0.0
  11
2.12373940656e-06
 21
2.12279230999e-06
 31
0.0
  0
LINE
  5
16f
330
1F
100
AcDbEntity
  8
main_beam
100
AcDbLine
 10
-16.39344232
 20
49928.9119184
 30
0.0
  11
-16.3934423199
 21
49828.9124928
 31
0.0
  0
LINE
  5
170
330
1F
100
AcDbEntity
  8
main_beam
100
AcDbLine
 10
-16.39344232
 20
49828.9124928
 30
0.0
  11
-16.39344232
 21
49928.9119184
 31
0.0
  0
LINE
  5
171
330
1F
100
AcDbEntity
  8
main_beam
100
AcDbLine
 10
2.1237376302e-06
 20
2.12279230305e-06
 30
0.0
  11
-16.39344232
 21
49828.9124928
 31
0.0
  0
LINE
  5
172
330
1F
100
AcDbEntity
  8
main_beam
100
AcDbLine
 10
-16.3934423199
 20
49828.9124928
 30
0.0
  11
2.1688354758e-06
 21
2.1678658868e-06
 31
0.0
  0
LINE
  5
173
330
1F
100
AcDbEntity
  8
main_beam
100
AcDbLine
 10
2.16883577764e-06
 20
2.16786560925e-06
 30
0.0
  11
24.9447983427
 21
-88.0900799853
 31
0.0
  0
LINE
  5
174
330
1F
100
AcDbEntity
  8
main_beam
100
AcDbLine
 10
2.16883577764e-06
 20
2.16786560925e-06
 30
0.0
  11
-15763.7712638
 21
12.2147239687
 31
0.0
  0
LINE
  5
175
330
1F
100
AcDbEntity
  8
main_beam
100
AcDbLine
 10
-15763.7712638
 20
12.2147239687
 30
0.0
  11
-4700.67856835
 21
268.621244615
 31
0.0
  0
LINE
  5
176
330
1F
100
AcDbEntity
  8
main_beam
100
AcDbLine
 10
-4700.67856835
 20
268.621244615
 30
0.0
  11
-19462.1074509
 21
226.716889195
 31
0.0
  0
LINE
  5
177
330
1F
100
AcDbEntity
  8
main_beam
100
AcDbLine
 10
24.9447983427
 20
-88.0900799853
 30
0.0
  11
47.2387817824
 21
-15693.9507404
 31
0.0
  0
LINE
  5
178
330
1F
100
AcDbEntity
  8
main_beam
100
AcDbLine
 10
47.2387817824
 20
-15693.9507404
 30
0.0
  11
297.490829191
 21
-4585.26428715
 31
0.0
  0
LINE
  5
179
330
1F
100
AcDbEntity
  8
main_beam
100
AcDbLine
 10
297.490829191
 20
-4585.26428715
 30
0.0
  11
265.280361073
 21
-19326.4527637
 31
0.0
  0
LINE
  5
17a
330
1F
100
AcDbEntity
  8
main_beam
100
AcDbLine
 10
-16.39344232
 20
49928.9119184
 30
0.0
  11
-16.3934419074
 21
2988290.10571
 31
0.0
  0
LINE
  5
17b
330
1F
100
AcDbEntity
  8
main_beam
100
AcDbLine
 10
53214.049028
 20
-7.57783899857
 30
0.0
  11
53114.0496025
 21
-7.57783899857
 31
0.0
  0
LINE
  5
17c
330
1F
100
AcDbEntity
  8
main_beam
100
AcDbLine
 10
53114.0496025
 20
-7.57783899857
 30
0.0
  11
53214.049028
 21
-7.57783899857
 31
0.0
  0
LINE
  5
17d
330
1F
100
AcDbEntity
  8
main_beam
100
AcDbLine
 10
88.2163923426
 20
-25.0230531796
 30
0.0
  11
53114.0496025
 21
-7.57783899857
 31
0.0
  0
LINE
  5
17e
330
1F
100
AcDbEntity
  8
main_beam
100
AcDbLine
 10
2.12374473563e-06
 20
2.12279890888e-06
 30
0.0
  11
24.9447982975
 21
-88.0900800303
 31
0.0
  0
LINE
  5
17f
330
1F
100
AcDbEntity
  8
main_beam
100
AcDbLine
 10
88.2163923426
 20
-25.0230531796
 30
0.0
  11
2.12374559605e-06
 21
2.12279890194e-06
 31
0.0
  0
LINE
  5
180
330
1F
100
AcDbEntity
  8
main_beam
100
AcDbLine
 10
53114.0496025
 20
-7.57783899857
 30
0.0
  11
88.2163923426
 21
-25.0230531796
 31
0.0
  0
LINE
  5
181
330
1F
100
AcDbEntity
  8
main_beam
100
AcDbLine
 10
24.9447982975
 20
-88.0900800303
 30
0.0
  11
47.2387817231
 21
-15693.9507404
 31
0.0
  0
LINE
  5
182
330
1F
100
AcDbEntity
  8
main_beam
100
AcDbLine
 10
47.2387817231
 20
-15693.9507404
 30
0.0
  11
297.490829174
 21
-4585.26428715
 31
0.0
  0
LINE
  5
183
330
1F
100
AcDbEntity
  8
main_beam
100
AcDbLine
 10
297.490829174
 20
-4585.26428715
 30
0.0
  11
265.280360951
 21
-19326.4527637
 31
0.0
  0
LINE
  5
184
330
1F
100
AcDbEntity
  8
main_beam
100
AcDbLine
 10
2.12374473563e-06
 20
2.12279890888e-06
 30
0.0
  11
-15763.7712638
 21
12.2147239093
 31
0.0
  0
LINE
  5
185
330
1F
100
AcDbEntity
  8
main_beam
100
AcDbLine
 10
-15763.7712638
 20
12.2147239093
 30
0.0
  11
-4700.67856835
 21
268.621244598
 31
0.0
  0
LINE
  5
186
330
1F
100
AcDbEntity
  8
main_beam
100
AcDbLine
 10
-4700.67856835
 20
268.621244598
 30
0.0
  11
-19462.1074509
 21
226.716889076
 31
0.0
  0
LINE
  5
187
330
1F
100
AcDbEntity
  8
main_beam
100
AcDbLine
 10
53214.049028
 20
-7.57783899857
 30
0.0
  11
2991575.24282
 21
-7.57783899857
 31
0.0
  0
LINE
  5
188
330
1F
100
AcDbEntity
  8
main_beam
100
AcDbLine
 10
53214.049028
 20
-7.57783899857
 30
0.0
  11
53114.0496025
 21
-7.57783899857
 31
0.0
  0
LINE
  5
189
330
1F
100
AcDbEntity
  8
main_beam
100
AcDbLine
 10
1522394.64621
 20
-7.57783899857
 30
0.0
  11
53214.049028
 21
-7.57783899857
 31
0.0
  0
LINE
  5
18a
330
1F
100
AcDbEntity
  8
main_beam
100
AcDbLine
 10
53214.049028
 20
-7.57783899857
 30
0.0
  11
2991575.24282
 21
-7.57783899857
 31
0.0
  0
LINE
  5
18b
330
1F
100
AcDbEntity
  8
main_beam
100
AcDbLine
 10
2.12374118291e-06
 20
2.12279357981e-06
 30
0.0
  11
24.9447982975
 21
-88.0900800303
 31
0.0
  0
LINE
  5
18c
330
1F
100
AcDbEntity
  8
main_beam
100
AcDbLine
 10
88.2163923426
 20
-25.0230531796
 30
0.0
  11
2.12374026698e-06
 21
2.1227935694e-06
 31
0.0
  0
LINE
  5
18d
330
1F
100
AcDbEntity
  8
main_beam
100
AcDbLine
 10
53114.0496025
 20
-7.57783899857
 30
0.0
  11
88.2163923426
 21
-25.0230531796
 31
0.0
  0
LINE
  5
18e
330
1F
100
AcDbEntity
  8
main_beam
100
AcDbLine
 10
24.9447982975
 20
-88.0900800303
 30
0.0
  11
47.2387817231
 21
-15693.9507404
 31
0.0
  0
LINE
  5
18f
330
1F
100
AcDbEntity
  8
main_beam
100
AcDbLine
 10
47.2387817231
 20
-15693.9507404
 30
0.0
  11
297.490829174
 21
-4585.26428715
 31
0.0
  0
LINE
  5
190
330
1F
100
AcDbEntity
  8
main_beam
100
AcDbLine
 10
297.490829174
 20
-4585.26428715
 30
0.0
  11
265.280360951
 21
-19326.4527637
 31
0.0
  0
LINE
  5
191
330
1F
100
AcDbEntity
  8
main_beam
100
AcDbLine
 10
2.12374118291e-06
 20
2.12279357981e-06
 30
0.0
  11
-15763.7712638
 21
12.2147239093
 31
0.0
  0
LINE
  5
192
330
1F
100
AcDbEntity
  8
main_beam
100
AcDbLine
 10
-15763.7712638
 20
12.2147239093
 30
0.0
  11
-4700.67856835
 21
268.621244598
 31
0.0
  0
LINE
  5
193
330
1F
100
AcDbEntity
  8
main_beam
100
AcDbLine
 10
-4700.67856835
 20
268.621244598
 30
0.0
  11
-19462.1074509
 21
226.716889076
 31
0.0
  0
LINE
  5
194
330
1F
100
AcDbEntity
  8
main_beam
100
AcDbLine
 10
-16.3934465654
 20
49928.9119184
 30
0.0
  11
-16.3934465654
 21
49828.9124928
 31
0.0
  0
LINE
  5
195
330
1F
100
AcDbEntity
  8
main_beam
100
AcDbLine
 10
-16.3934465653
 20
1519109.5091
 30
0.0
  11
-16.3934465654
 21
49928.9119184
 31
0.0
  0
LINE
  5
196
330
1F
100
AcDbEntity
  8
main_beam
100
AcDbLine
 10
-16.3934465654
 20
49928.9119184
 30
0.0
  11
-16.3934465652
 21
2988290.10571
 31
0.0
  0
LINE
  5
197
330
1F
100
AcDbEntity
  8
main_beam
100
AcDbLine
 10
-2.12026662894e-06
 20
-2.11932188465e-06
 30
0.0
  11
24.9447940509
 21
-88.0900842632
 31
0.0
  0
LINE
  5
198
330
1F
100
AcDbEntity
  8
main_beam
100
AcDbLine
 10
-16.3934465654
 20
49828.9124928
 30
0.0
  11
-2.12026750671e-06
 21
-2.1193216071e-06
 31
0.0
  0
LINE
  5
199
330
1F
100
AcDbEntity
  8
main_beam
100
AcDbLine
 10
-2.12026662894e-06
 20
-2.11932188465e-06
 30
0.0
  11
-15763.7712637
 21
12.2147196639
 31
0.0
  0
LINE
  5
19a
330
1F
100
AcDbEntity
  8
main_beam
100
AcDbLine
 10
-15763.7712637
 20
12.2147196639
 30
0.0
  11
-4700.67856834
 21
268.621244124
 31
0.0
  0
LINE
  5
19b
330
1F
100
AcDbEntity
  8
main_beam
100
AcDbLine
 10
-4700.67856834
 20
268.621244124
 30
0.0
  11
-19462.1074509
 21
226.716889082
 31
0.0
  0
LINE
  5
19c
330
1F
100
AcDbEntity
  8
main_beam
100
AcDbLine
 10
24.9447940509
 20
-88.0900842632
 30
0.0
  11
47.2387774704
 21
-15693.9507403
 31
0.0
  0
LINE
  5
19d
330
1F
100
AcDbEntity
  8
main_beam
100
AcDbLine
 10
47.2387774704
 20
-15693.9507403
 30
0.0
  11
297.490828715
 21
-4585.26428714
 31
0.0
  0
LINE
  5
19e
330
1F
100
AcDbEntity
  8
main_beam
100
AcDbLine
 10
297.490828715
 20
-4585.26428714
 30
0.0
  11
265.280360989
 21
-19326.4527637
 31
0.0
  0
LINE
  5
1a2
330
1F
100
AcDbEntity
  8
stray_beam
100
AcDbLine
 10
-4700.67856835
 20
268.621244598
 30
0.0
  11
-4598.11223195
 21
269.235879022
 31
0.0
  0
LINE
  5
1a3
330
1F
100
AcDbEntity
  8
stray_beam
100
AcDbLine
 10
-15763.7712638
 20
12.2147239093
 30
0.0
  11
-15863.4135023
 21
10.2756014941
 31
0.0
  0
LINE
  5
1a4
330
1F
100
AcDbEntity
  8
stray_beam
100
AcDbLine
 10
63.4404200968
 20
63.4121404991
 30
0.0
  11
152.00344306
 21
38.5577637891
 31
0.0
  0
LINE
  5
1a5
330
1F
100
AcDbEntity
  8
stray_beam
100
AcDbLine
 10
88.2163923426
 20
-25.0230531796
 30
0.0
  11
63.4404200968
 21
63.4121404991
 31
0.0
  0
LINE
  5
1a6
330
1F
100
AcDbEntity
  8
stray_beam
100
AcDbLine
 10
-16.3934423199
 20
49828.9124928
 30
0.0
  11
-16.2471159671
 21
49928.9119184
 31
0.0
  0
LINE
  5
1a7
330
1F
100
AcDbEntity
  8
stray_beam
100
AcDbLine
 10
-16.2471159671
 20
49928.9119184
 30
0.0
  11
-16.1007871491
 21
49828.9122787
 31
0.0
  0
LINE
  5
1a8
330
1F
100
AcDbEntity
  8
stray_beam
100
AcDbLine
 10
-16.39344232
 20
49828.9124928
 30
0.0
  11
-105.889877227
 21
-105.842675095
 31
0.0
  0
LINE
  5
1a9
330
1F
100
AcDbEntity
  8
stray_beam
100
AcDbLine
 10
-105.889877227
 20
-105.842675095
 30
0.0
  11
-83.5180257464
 21
-185.205227195
 31
0.0
  0
LINE
  5
1aa
330
1F
100
AcDbEntity
  8
stray_beam
100
AcDbLine
 10
-105.889877227
 20
-105.842675095
 30
0.0
  11
-1105.88897083
 21
-107.189074581
 31
0.0
  0
LINE
  5
1ab
330
1F
100
AcDbEntity
  8
stray_beam
100
AcDbLine
 10
24.9447983427
 20
-88.0900799853
 30
0.0
  11
-62.9273745994
 21
-62.8993237001
 31
0.0
  0
LINE
  5
1ac
330
1F
100
AcDbEntity
  8
stray_beam
100
AcDbLine
 10
-15763.7712638
 20
12.2147239687
 30
0.0
  11
-15863.4894464
 21
11.921616614
 31
0.0
  0
LINE
  5
1ad
330
1F
100
AcDbEntity
  8
stray_beam
100
AcDbLine
 10
-4700.67856835
 20
268.621244615
 30
0.0
  11
-4598.1811597
 21
270.673402384
 31
0.0
  0
LINE
  5
1ae
330
1F
100
AcDbEntity
  8
stray_beam
100
AcDbLine
 10
-4598.1811597
 20
270.673402384
 30
0.0
  11
-3598.20906215
 21
278.143617265
 31
0.0
  0
LINE
  5
1af
330
1F
100
AcDbEntity
  8
stray_beam
100
AcDbLine
 10
-15863.4894464
 20
11.921616614
 30
0.0
  11
-16863.3534466
 21
28.4134657463
 31
0.0
  0
LINE
  5
1b0
330
1F
100
AcDbEntity
  8
stray_beam
100
AcDbLine
 10
47.2387817824
 20
-15693.9507404
 30
0.0
  11
47.0109164265
 21
-15793.6115805
 31
0.0
  0
LINE
  5
1b1
330
1F
100
AcDbEntity
  8
stray_beam
100
AcDbLine
 10
297.490829191
 20
-4585.26428715
 30
0.0
  11
299.478851821
 21
-4482.6393828
 31
0.0
  0
LINE
  5
1b2
330
1F
100
AcDbEntity
  8
stray_beam
100
AcDbLine
 10
299.478851821
 20
-4482.6393828
 30
0.0
  11
337.709314379
 21
-3483.37043415
 31
0.0
  0
LINE
  5
1b3
330
1F
100
AcDbEntity
  8
stray_beam
100
AcDbLine
 10
47.0109164265
 20
-15793.6115805
 30
0.0
  11
32.7383327284
 21
-16793.509722
 31
0.0
  0
LINE
  5
1b4
330
1F
100
AcDbEntity
  8
stray_beam
100
AcDbLine
 10
-16.1007871491
 20
49828.9122787
 30
0.0
  11
105.735696457
 21
105.688563053
 31
0.0
  0
LINE
  5
1b5
330
1F
100
AcDbEntity
  8
stray_beam
100
AcDbLine
 10
105.735696457
 20
105.688563053
 30
0.0
  11
130.833805363
 21
17.4565709205
 31
0.0
  0
LINE
  5
1b6
330
1F
100
AcDbEntity
  8
stray_beam
100
AcDbLine
 10
105.735696457
 20
105.688563053
 30
0.0
  11
-19461.9202349
 21
162.35966728
 31
0.0
  0
LINE
  5
1b7
330
1F
100
AcDbEntity
  8
stray_beam
100
AcDbLine
 10
-19461.9202349
 20
162.35966728
 30
0.0
  11
-4700.89937681
 21
293.066672999
 31
0.0
  0
LINE
  5
1b8
330
1F
100
AcDbEntity
  8
stray_beam
100
AcDbLine
 10
-4700.89937681
 20
293.066672999
 30
0.0
  11
-19462.24036
 21
274.410608932
 31
0.0
  0
LINE
  5
1b9
330
1F
100
AcDbEntity
  8
stray_beam
100
AcDbLine
 10
-19462.24036
 20
274.410608932
 30
0.0
  11
-4700.81260586
 21
336.489785201
 31
0.0
  0
LINE
  5
1ba
330
1F
100
AcDbEntity
  8
stray_beam
100
AcDbLine
 10
-4700.81260586
 20
336.489785201
 30
0.0
  11
-5700.56359151
 21
358.804952563
 31
0.0
  0
LINE
  5
1bb
330
1F
100
AcDbEntity
  8
stray_beam
100
AcDbLine
 10
130.833805363
 20
17.4565709205
 30
0.0
  11
199.431886231
 21
-19326.3041481
 31
0.0
  0
LINE
  5
1bc
330
1F
100
AcDbEntity
  8
stray_beam
100
AcDbLine
 10
199.431886231
 20
-19326.3041481
 30
0.0
  11
320.366159213
 21
-4585.45931231
 31
0.0
  0
LINE
  5
1bd
330
1F
100
AcDbEntity
  8
stray_beam
100
AcDbLine
 10
320.366159213
 20
-4585.45931231
 30
0.0
  11
302.842721888
 21
-19326.5333
 31
0.0
  0
LINE
  5
1be
330
1F
100
AcDbEntity
  8
stray_beam
100
AcDbLine
 10
302.842721888
 20
-19326.5333
 30
0.0
  11
347.322473067
 21
-4585.46427981
 31
0.0
  0
LINE
  5
1bf
330
1F
100
AcDbEntity
  8
stray_beam
100
AcDbLine
 10
347.322473067
 20
-4585.46427981
 30
0.0
  11
358.99507397
 21
-5585.39615269
 31
0.0
  0
LINE
  5
1c0
330
1F
100
AcDbEntity
  8
stray_beam
100
AcDbLine
 10
63.4404200968
 20
63.4121404991
 30
0.0
  11
68.1159736435
 21
1063.40121004
 31
0.0
  0
LINE
  5
1c1
330
1F
100
AcDbEntity
  8
stray_beam
100
AcDbLine
 10
53114.0496025
 20
-7.57783899857
 30
0.0
  11
53214.049028
 21
-7.72416535127
 31
0.0
  0
LINE
  5
1c2
330
1F
100
AcDbEntity
  8
stray_beam
100
AcDbLine
 10
53214.049028
 20
-7.72416535127
 30
0.0
  11
53114.0493883
 21
-7.87049416914
 31
0.0
  0
LINE
  5
1c3
330
1F
100
AcDbEntity
  8
stray_beam
100
AcDbLine
 10
53114.0496025
 20
-7.57783899857
 30
0.0
  11
181.387960356
 21
87.2916460164
 31
0.0
  0
LINE
  5
1c4
330
1F
100
AcDbEntity
  8
stray_beam
100
AcDbLine
 10
24.9447982975
 20
-88.0900800303
 30
0.0
  11
-62.9273746444
 21
-62.8993237452
 31
0.0
  0
LINE
  5
1c5
330
1F
100
AcDbEntity
  8
stray_beam
100
AcDbLine
 10
88.2163923426
 20
-25.0230531796
 30
0.0
  11
32.3196031823
 21
-15693.7889055
 31
0.0
  0
LINE
  5
1c6
330
1F
100
AcDbEntity
  8
stray_beam
100
AcDbLine
 10
32.3196031823
 20
-15693.7889055
 30
0.0
  11
240.379429924
 21
-4584.01241698
 31
0.0
  0
LINE
  5
1c7
330
1F
100
AcDbEntity
  8
stray_beam
100
AcDbLine
 10
240.379429924
 20
-4584.01241698
 30
0.0
  11
196.163007116
 21
-5583.0343927
 31
0.0
  0
LINE
  5
1c8
330
1F
100
AcDbEntity
  8
stray_beam
100
AcDbLine
 10
47.2387817231
 20
-15693.9507404
 30
0.0
  11
47.010916367
 21
-15793.6115805
 31
0.0
  0
LINE
  5
1c9
330
1F
100
AcDbEntity
  8
stray_beam
100
AcDbLine
 10
297.490829174
 20
-4585.26428715
 30
0.0
  11
299.478851805
 21
-4482.6393828
 31
0.0
  0
LINE
  5
1ca
330
1F
100
AcDbEntity
  8
stray_beam
100
AcDbLine
 10
299.478851805
 20
-4482.6393828
 30
0.0
  11
337.70931437
 21
-3483.37043415
 31
0.0
  0
LINE
  5
1cb
330
1F
100
AcDbEntity
  8
stray_beam
100
AcDbLine
 10
47.010916367
 20
-15793.6115805
 30
0.0
  11
32.738332667
 21
-16793.509722
 31
0.0
  0
LINE
  5
1cc
330
1F
100
AcDbEntity
  8
stray_beam
100
AcDbLine
 10
-15763.7712638
 20
12.2147239093
 30
0.0
  11
-15863.4894464
 21
11.9216165545
 31
0.0
  0
LINE
  5
1cd
330
1F
100
AcDbEntity
  8
stray_beam
100
AcDbLine
 10
-4700.67856835
 20
268.621244598
 30
0.0
  11
-4598.1811597
 21
270.673402368
 31
0.0
  0
LINE
  5
1ce
330
1F
100
AcDbEntity
  8
stray_beam
100
AcDbLine
 10
-4598.1811597
 20
270.673402368
 30
0.0
  11
-3598.20906215
 21
278.143617255
 31
0.0
  0
LINE
  5
1cf
330
1F
100
AcDbEntity
  8
stray_beam
100
AcDbLine
 10
-15863.4894464
 20
11.9216165545
 30
0.0
  11
-16863.3534466
 21
28.4134656849
 31
0.0
  0
LINE
  5
1d0
330
1F
100
AcDbEntity
  8
stray_beam
100
AcDbLine
 10
-113.262202125
 20
-113.211713659
 30
0.0
  11
-96.6792370552
 21
-172.038146446
 31
0.0
  0
LINE
  5
1d1
330
1F
100
AcDbEntity
  8
stray_beam
100
AcDbLine
 10
53114.0493883
 20
-7.87049416914
 30
0.0
  11
-25.204516114
 21
-138.077253679
 31
0.0
  0
LINE
  5
1d2
330
1F
100
AcDbEntity
  8
stray_beam
100
AcDbLine
 10
-25.204516114
 20
-138.077253679
 30
0.0
  11
-113.262202125
 21
-113.211713659
 31
0.0
  0
LINE
  5
1d3
330
1F
100
AcDbEntity
  8
stray_beam
100
AcDbLine
 10
-113.262202125
 20
-113.211713659
 30
0.0
  11
-1113.26130061
 21
-114.554482703
 31
0.0
  0
LINE
  5
1d4
330
1F
100
AcDbEntity
  8
stray_beam
100
AcDbLine
 10
-15863.4135023
 20
10.2756014941
 30
0.0
  11
-16863.3855948
 21
2.80470381199
 31
0.0
  0
LINE
  5
1d5
330
1F
100
AcDbEntity
  8
stray_beam
100
AcDbLine
 10
-4598.11223195
 20
269.235879022
 30
0.0
  11
-3598.19514223
 21
256.359012271
 31
0.0
  0
LINE
  5
1d6
330
1F
100
AcDbEntity
  8
stray_beam
100
AcDbLine
 10
53214.049028
 20
-7.72416535127
 30
0.0
  11
53114.0493883
 21
-7.87049416914
 31
0.0
  0
LINE
  5
1d7
330
1F
100
AcDbEntity
  8
stray_beam
100
AcDbLine
 10
53114.0496025
 20
-7.57783899857
 30
0.0
  11
53214.049028
 21
-7.72416535127
 31
0.0
  0
LINE
  5
1d8
330
1F
100
AcDbEntity
  8
stray_beam
100
AcDbLine
 10
-113.262202125
 20
-113.211713659
 30
0.0
  11
-96.6792370553
 21
-172.038146446
 31
0.0
  0
LINE
  5
1d9
330
1F
100
AcDbEntity
  8
stray_beam
100
AcDbLine
 10
53114.0493883
 20
-7.87049416914
 30
0.0
  11
-25.204516114
 21
-138.077253679
 31
0.0
  0
LINE
  5
1da
330
1F
100
AcDbEntity
  8
stray_beam
100
AcDbLine
 10
-25.204516114
 20
-138.077253679
 30
0.0
  11
-113.262202125
 21
-113.211713659
 31
0.0
  0
LINE
  5
1db
330
1F
100
AcDbEntity
  8
stray_beam
100
AcDbLine
 10
-113.262202125
 20
-113.211713659
 30
0.0
  11
-1113.26130061
 21
-114.554482703
 31
0.0
  0
LINE
  5
1dc
330
1F
100
AcDbEntity
  8
stray_beam
100
AcDbLine
 10
24.9447982975
 20
-88.0900800303
 30
0.0
  11
-62.9273746445
 21
-62.8993237452
 31
0.0
  0
LINE
  5
1dd
330
1F
100
AcDbEntity
  8
stray_beam
100
AcDbLine
 10
-62.9273746445
 20
-62.8993237452
 30
0.0
  11
-37.8147290591
 21
-150.646695786
 31
0.0
  0
LINE
  5
1de
330
1F
100
AcDbEntity
  8
stray_beam
100
AcDbLine
 10
88.2163923426
 20
-25.0230531796
 30
0.0
  11
32.3196031823
 21
-15693.7889055
 31
0.0
  0
LINE
  5
1df
330
1F
100
AcDbEntity
  8
stray_beam
100
AcDbLine
 10
32.3196031823
 20
-15693.7889055
 30
0.0
  11
240.379429924
 21
-4584.01241698
 31
0.0
  0
LINE
  5
1e0
330
1F
100
AcDbEntity
  8
stray_beam
100
AcDbLine
 10
240.379429924
 20
-4584.01241698
 30
0.0
  11
196.163007116
 21
-5583.0343927
 31
0.0
  0
LINE
  5
1e1
330
1F
100
AcDbEntity
  8
stray_beam
100
AcDbLine
 10
47.2387817231
 20
-15693.9507404
 30
0.0
  11
47.010916367
 21
-15793.6115805
 31
0.0
  0
LINE
  5
1e2
330
1F
100
AcDbEntity
  8
stray_beam
100
AcDbLine
 10
297.490829174
 20
-4585.26428715
 30
0.0
  11
299.478851805
 21
-4482.6393828
 31
0.0
  0
LINE
  5
1e3
330
1F
100
AcDbEntity
  8
stray_beam
100
AcDbLine
 10
299.478851805
 20
-4482.6393828
 30
0.0
  11
337.70931437
 21
-3483.37043415
 31
0.0
  0
LINE
  5
1e4
330
1F
100
AcDbEntity
  8
stray_beam
100
AcDbLine
 10
47.010916367
 20
-15793.6115805
 30
0.0
  11
32.738332667
 21
-16793.509722
 31
0.0
  0
LINE
  5
1e5
330
1F
100
AcDbEntity
  8
stray_beam
100
AcDbLine
 10
-37.8147290591
 20
-150.646695786
 30
0.0
  11
61.781957827
 21
-15694.0998969
 31
0.0
  0
LINE
  5
1e6
330
1F
100
AcDbEntity
  8
stray_beam
100
AcDbLine
 10
61.781957827
 20
-15694.0998969
 30
0.0
  11
354.400478768
 21
-4585.42526202
 31
0.0
  0
LINE
  5
1e7
330
1F
100
AcDbEntity
  8
stray_beam
100
AcDbLine
 10
354.400478768
 20
-4585.42526202
 30
0.0
  11
394.119846963
 21
-5584.63613656
 31
0.0
  0
LINE
  5
1e8
330
1F
100
AcDbEntity
  8
stray_beam
100
AcDbLine
 10
-62.9273746445
 20
-62.8993237452
 30
0.0
  11
-15763.9385569
 21
27.5753375118
 31
0.0
  0
LINE
  5
1e9
330
1F
100
AcDbEntity
  8
stray_beam
100
AcDbLine
 10
-15763.9385569
 20
27.5753375118
 30
0.0
  11
-4700.89226898
 21
325.54179609
 31
0.0
  0
LINE
  5
1ea
330
1F
100
AcDbEntity
  8
stray_beam
100
AcDbLine
 10
-4700.89226898
 20
325.54179609
 30
0.0
  11
-5700.17335587
 21
363.453659348
 31
0.0
  0
LINE
  5
1eb
330
1F
100
AcDbEntity
  8
stray_beam
100
AcDbLine
 10
-15763.7712638
 20
12.2147239093
 30
0.0
  11
-15863.4894464
 21
11.9216165545
 31
0.0
  0
LINE
  5
1ec
330
1F
100
AcDbEntity
  8
stray_beam
100
AcDbLine
 10
-4700.67856835
 20
268.621244598
 30
0.0
  11
-4598.1811597
 21
270.673402368
 31
0.0
  0
LINE
  5
1ed
330
1F
100
AcDbEntity
  8
stray_beam
100
AcDbLine
 10
-4598.1811597
 20
270.673402368
 30
0.0
  11
-3598.20906215
 21
278.143617255
 31
0.0
  0
LINE
  5
1ee
330
1F
100
AcDbEntity
  8
stray_beam
100
AcDbLine
 10
-15863.4894464
 20
11.9216165545
 30
0.0
  11
-16863.3534466
 21
28.4134656849
 31
0.0
  0
LINE
  5
1ef
330
1F
100
AcDbEntity
  8
stray_beam
100
AcDbLine
 10
-16.2471202127
 20
49928.9119184
 30
0.0
  11
-16.1007913948
 21
49828.9122787
 31
0.0
  0
LINE
  5
1f0
330
1F
100
AcDbEntity
  8
stray_beam
100
AcDbLine
 10
-16.3934465654
 20
49828.9124928
 30
0.0
  11
-16.2471202127
 21
49928.9119184
 31
0.0
  0
LINE
  5
1f1
330
1F
100
AcDbEntity
  8
stray_beam
100
AcDbLine
 10
-16.1007913948
 20
49828.9122787
 30
0.0
  11
105.735692132
 21
105.68855873
 31
0.0
  0
LINE
  5
1f2
330
1F
100
AcDbEntity
  8
stray_beam
100
AcDbLine
 10
105.735692132
 20
105.68855873
 30
0.0
  11
130.833801035
 21
17.4565666067
 31
0.0
  0
LINE
  5
1f3
330
1F
100
AcDbEntity
  8
stray_beam
100
AcDbLine
 10
105.735692132
 20
105.68855873
 30
0.0
  11
-19461.9202348
 21
162.359662909
 31
0.0
  0
LINE
  5
1f4
330
1F
100
AcDbEntity
  8
stray_beam
100
AcDbLine
 10
-19461.9202348
 20
162.359662909
 30
0.0
  11
-19559.6743363
 21
162.464618054
 31
0.0
  0
LINE
  5
1f5
330
1F
100
AcDbEntity
  8
stray_beam
100
AcDbLine
 10
-19461.9202348
 20
162.359662909
 30
0.0
  11
-4700.89937679
 21
293.066668883
 31
0.0
  0
LINE
  5
1f6
330
1F
100
AcDbEntity
  8
stray_beam
100
AcDbLine
 10
-4700.89937679
 20
293.066668883
 30
0.0
  11
-19462.2403598
 21
274.410565571
 31
0.0
  0
LINE
  5
1f7
330
1F
100
AcDbEntity
  8
stray_beam
100
AcDbLine
 10
-19462.2403598
 20
274.410565571
 30
0.0
  11
-19563.8951801
 21
274.235711348
 31
0.0
  0
LINE
  5
1f8
330
1F
100
AcDbEntity
  8
stray_beam
100
AcDbLine
 10
-19462.2403598
 20
274.410565571
 30
0.0
  11
-4700.81260658
 21
336.489705384
 31
0.0
  0
LINE
  5
1f9
330
1F
100
AcDbEntity
  8
stray_beam
100
AcDbLine
 10
-4700.81260658
 20
336.489705384
 30
0.0
  11
-5700.56359344
 21
358.804818399
 31
0.0
  0
LINE
  5
1fa
330
1F
100
AcDbEntity
  8
stray_beam
100
AcDbLine
 10
-19563.8951801
 20
274.235711348
 30
0.0
  11
-20563.7901749
 21
288.727071008
 31
0.0
  0
LINE
  5
1fb
330
1F
100
AcDbEntity
  8
stray_beam
100
AcDbLine
 10
-19559.6743363
 20
162.464618054
 30
0.0
  11
-20559.5023827
 21
181.008556012
 31
0.0
  0
LINE
  5
1fc
330
1F
100
AcDbEntity
  8
stray_beam
100
AcDbLine
 10
130.833801035
 20
17.4565666067
 30
0.0
  11
199.431881853
 21
-19326.3041481
 31
0.0
  0
LINE
  5
1fd
330
1F
100
AcDbEntity
  8
stray_beam
100
AcDbLine
 10
199.431881853
 20
-19326.3041481
 30
0.0
  11
199.608188739
 21
-19428.5779815
 31
0.0
  0
LINE
  5
1fe
330
1F
100
AcDbEntity
  8
stray_beam
100
AcDbLine
 10
199.431881853
 20
-19326.3041481
 30
0.0
  11
320.36615509
 21
-4585.45931229
 31
0.0
  0
LINE
  5
1ff
330
1F
100
AcDbEntity
  8
stray_beam
100
AcDbLine
 10
320.36615509
 20
-4585.45931229
 30
0.0
  11
302.842677329
 21
-19326.5332999
 31
0.0
  0
LINE
  5
200
330
1F
100
AcDbEntity
  8
stray_beam
100
AcDbLine
 10
302.842677329
 20
-19326.5332999
 30
0.0
  11
302.697398884
 21
-19425.2035411
 31
0.0
  0
LINE
  5
201
330
1F
100
AcDbEntity
  8
stray_beam
100
AcDbLine
 10
302.842677329
 20
-19326.5332999
 30
0.0
  11
347.322390938
 21
-4585.46428017
 31
0.0
  0
LINE
  5
202
330
1F
100
AcDbEntity
  8
stray_beam
100
AcDbLine
 10
347.322390938
 20
-4585.46428017
 30
0.0
  11
358.994934307
 21
-5585.39615371
 31
0.0
  0
LINE
  5
203
330
1F
100
AcDbEntity
  8
stray_beam
100
AcDbLine
 10
302.697398884
 20
-19425.2035411
 30
0.0
  11
285.839219284
 21
-20425.0614319
 31
0.0
  0
LINE
  5
204
330
1F
100
AcDbEntity
  8
stray_beam
100
AcDbLine
 10
199.608188739
 20
-19428.5779815
 30
0.0
  11
187.385713682
 21
-20428.5032842
 31
0.0
  0
LINE
  5
205
330
1F
100
AcDbEntity
  8
stray_beam
100
AcDbLine
 10
-62.9273788819
 20
-62.8993279807
 30
0.0
  11
-37.8147332991
 21
-150.646700012
 31
0.0
  0
LINE
  5
206
330
1F
100
AcDbEntity
  8
stray_beam
100
AcDbLine
 10
24.9447940509
 20
-88.0900842632
 30
0.0
  11
-62.9273788819
 21
-62.8993279807
 31
0.0
  0
LINE
  5
207
330
1F
100
AcDbEntity
  8
stray_beam
100
AcDbLine
 10
-15763.7712637
 20
12.2147196639
 30
0.0
  11
-15863.4894462
 21
11.9216123042
 31
0.0
  0
LINE
  5
208
330
1F
100
AcDbEntity
  8
stray_beam
100
AcDbLine
 10
-4700.67856834
 20
268.621244124
 30
0.0
  11
-4598.18115968
 21
270.673401923
 31
0.0
  0
LINE
  5
209
330
1F
100
AcDbEntity
  8
stray_beam
100
AcDbLine
 10
-4598.18115968
 20
270.673401923
 30
0.0
  11
-3598.20906213
 21
278.143617221
 31
0.0
  0
LINE
  5
20a
330
1F
100
AcDbEntity
  8
stray_beam
100
AcDbLine
 10
-15863.4894462
 20
11.9216123042
 30
0.0
  11
-16863.3534464
 21
28.4134613579
 31
0.0
  0
LINE
  5
20b
330
1F
100
AcDbEntity
  8
stray_beam
100
AcDbLine
 10
-62.9273788819
 20
-62.8993279807
 30
0.0
  11
-15763.9385568
 21
27.5753332516
 31
0.0
  0
LINE
  5
20c
330
1F
100
AcDbEntity
  8
stray_beam
100
AcDbLine
 10
-15763.9385568
 20
27.5753332516
 30
0.0
  11
-4700.89226898
 21
325.541795614
 31
0.0
  0
LINE
  5
20d
330
1F
100
AcDbEntity
  8
stray_beam
100
AcDbLine
 10
-4700.89226898
 20
325.541795614
 30
0.0
  11
-5700.17335587
 21
363.453658905
 31
0.0
  0
LINE
  5
20e
330
1F
100
AcDbEntity
  8
stray_beam
100
AcDbLine
 10
47.2387774704
 20
-15693.9507403
 30
0.0
  11
47.0109121087
 21
-15793.6115806
 31
0.0
  0
LINE
  5
20f
330
1F
100
AcDbEntity
  8
stray_beam
100
AcDbLine
 10
297.490828715
 20
-4585.26428714
 30
0.0
  11
299.478851374
 21
-4482.63938281
 31
0.0
  0
LINE
  5
210
330
1F
100
AcDbEntity
  8
stray_beam
100
AcDbLine
 10
299.478851374
 20
-4482.63938281
 30
0.0
  11
337.70931435
 21
-3483.37043418
 31
0.0
  0
LINE
  5
211
330
1F
100
AcDbEntity
  8
stray_beam
100
AcDbLine
 10
47.0109121087
 20
-15793.6115806
 30
0.0
  11
32.7383283318
 21
-16793.5097221
 31
0.0
  0
LWPOLYLINE
  5
214
330
1F
100
AcDbEntity
  8
main_beam_width
100
AcDbPolyline
 90
10
 70
0
43
0.0
 10
-19462.1315697
 20
235.213085771
 10
-17821.9852014
 20
240.220710488
 10
-16181.8389357
 20
245.264446136
 10
-14541.6927601
 20
250.339943247
 10
-12901.5466634
 20
255.443245999
 10
-11261.4006357
 20
260.570826288
 10
-9621.25466803
 20
265.719581001
 10
-7981.10875283
 20
270.886806937
 10
-6340.96288343
 20
276.070164134
 10
-4700.81705409
 20
281.267634794
  0
LWPOLYLINE
  5
215
330
1F
100
AcDbEntity
  8
main_beam_width
100
AcDbPolyline
 90
10
 70
0
43
0.0
 10
-19462.0833321
 20
218.220692381
 10
-17821.9063933
 20
222.525156617
 10
-16181.729352
 20
226.793508741
 10
-14541.5522205
 20
231.030098439
 10
-12901.3750101
 20
235.238881723
 10
-11261.1977307
 20
239.423386853
 10
-9621.02039126
 20
243.586717072
 10
-7980.84299937
 20
247.731575686
 10
-6340.66556168
 20
251.860302742
 10
-4700.48808393
 20
255.974916103
  0
LWPOLYLINE
  5
216
330
1F
100
AcDbEntity
  8
main_beam_width
100
AcDbPolyline
 90
100
 70
0
43
0.0
 10
-4700.48807883
 20
255.974618636
 10
-4812.22393786
 20
252.428172912
 10
-4923.95979581
 20
248.881680856
 10
-5035.69565289
 20
245.335151037
 10
-5147.43150924
 20
241.788590033
 10
-5259.16736499
 20
238.242002978
 10
-5370.90322023
 20
234.695393939
 10
-5482.63907504
 20
231.148766177
 10
-5594.37492947
 20
227.60212234
 10
-5706.11078358
 20
224.055464597
 10
-5817.84663741
 20
220.508794746
 10
-5929.582491
 20
216.962114286
 10
-6041.31834437
 20
213.41542448
 10
-6153.05419754
 20
209.868726396
 10
-6264.79005055
 20
206.322020948
 10
-6376.5259034
 20
202.775308918
 10
-6488.26175612
 20
199.228590982
 10
-6599.99760871
 20
195.681867726
 10
-6711.73346119
 20
192.135139662
 10
-6823.46931357
 20
188.588407237
 10
-6935.20516586
 20
185.041670845
 10
-7046.94101807
 20
181.494930834
 10
-7158.6768702
 20
177.948187513
 10
-7270.41272225
 20
174.401441154
 10
-7382.14857425
 20
170.854692005
 10
-7493.88442618
 20
167.307940282
 10
-7605.62027806
 20
163.761186184
 10
-7717.35612989
 20
160.214429888
 10
-7829.09198167
 20
156.667671552
 10
-7940.8278334
 20
153.120911324
 10
-8052.5636851
 20
149.574149332
 10
-8164.29953675
 20
146.027385699
 10
-8276.03538838
 20
142.480620531
 10
-8387.77123996
 20
138.93385393
 10
-8499.50709152
 20
135.387085985
 10
-8611.24294305
 20
131.840316782
 10
-8722.97879455
 20
128.293546395
 10
-8834.71464603
 20
124.746774897
 10
-8946.45049748
 20
121.200002351
 10
-9058.1863489
 20
117.653228819
 10
-9169.92220031
 20
114.106454356
 10
-9281.6580517
 20
110.559679013
 10
-9393.39390306
 20
107.012902839
 10
-9505.12975441
 20
103.466125877
 10
-9616.86560574
 20
99.919348169
 10
-9728.60145706
 20
96.3725697534
 10
-9840.33730836
 20
92.8257906659
 10
-9952.07315964
 20
89.2790109402
 10
-10063.8090109
 20
85.7322306074
 10
-10175.5448622
 20
82.1854496968
 10
-10287.2807134
 20
78.6386682359
 10
-10399.0165646
 20
75.0918862503
 10
-10510.7524159
 20
71.5451037642
 10
-10622.4882671
 20
67.9983208003
 10
-10734.2241183
 20
64.4515373799
 10
-10845.9599695
 20
60.9047535231
 10
-10957.6958206
 20
57.3579692487
 10
-11069.4316718
 20
53.8111845747
 10
-11181.167523
 20
50.2643995178
 10
-11292.9033741
 20
46.717614094
 10
-11404.6392253
 20
43.1708283183
 10
-11516.3750764
 20
39.624042205
 10
-11628.1109275
 20
36.0772557674
 10
-11739.8467787
 20
32.5304690184
 10
-11851.5826298
 20
28.98368197
 10
-11963.3184809
 20
25.4368946338
 10
-12075.054332
 20
21.8901070206
 10
-12186.7901831
 20
18.3433191409
 10
-12298.5260342
 20
14.7965310044
 10
-12410.2618852
 20
11.2497426204
 10
-12521.9977363
 20
7.70295399807
 10
-12633.7335874
 20
4.15616514573
 10
-12745.4694385
 20
0.609376071513
 10
-12857.2052895
 20
-2.93741321686
 10
-12968.9411406
 20
-6.48420271201
 10
-13080.6769916
 20
-10.0309924069
 10
-13192.4128427
 20
-13.5777822949
 10
-13304.1486937
 20
-17.1245723694
 10
-13415.8845448
 20
-20.6713626245
 10
-13527.6203958
 20
-24.2181530541
 10
-13639.3562468
 20
-27.7649436528
 10
-13751.0920979
 20
-31.311734415
 10
-13862.8279489
 20
-34.8585253357
 10
-13974.5637999
 20
-38.4053164099
 10
-14086.2996509
 20
-41.9521076329
 10
-14198.0355019
 20
-45.4988990001
 10
-14309.771353
 20
-49.0456905072
 10
-14421.507204
 20
-52.59248215
 10
-14533.243055
 20
-56.1392739244
 10
-14644.978906
 20
-59.6860658267
 10
-14756.714757
 20
-63.232857853
 10
-14868.450608
 20
-66.7796499998
 10
-14980.186459
 20
-70.3264422637
 10
-15091.92231
 20
-73.8732346413
 10
-15203.6581609
 20
-77.4200271296
 10
-15315.3940119
 20
-80.9668197253
 10
-15427.1298629
 20
-84.5136124257
 10
-15538.8657139
 20
-88.0604052277
 10
-15650.6015649
 20
-91.6071981287
 10
-15762.3374158
 20
-95.1539911261
  0
LWPOLYLINE
  5
217
330
1F
100
AcDbEntity
  8
main_beam_width
100
AcDbPolyline
 90
100
 70
0
43
0.0
 10
-4700.81704733
 20
281.26687512
 10
-4812.5738607
 20
279.63328714
 10
-4924.33067514
 20
277.999745498
 10
-5036.08749046
 20
276.366241623
 10
-5147.8443065
 20
274.732768936
 10
-5259.60112315
 20
273.099322304
 10
-5371.35794031
 20
271.465897659
 10
-5483.11475789
 20
269.832491739
 10
-5594.87157586
 20
268.199101898
 10
-5706.62839414
 20
266.565725963
 10
-5818.38521271
 20
264.932362138
 10
-5930.14203152
 20
263.299008924
 10
-6041.89885054
 20
261.665665058
 10
-6153.65566976
 20
260.03232947
 10
-6265.41248915
 20
258.399001248
 10
-6377.1693087
 20
256.765679609
 10
-6488.92612838
 20
255.132363877
 10
-6600.68294818
 20
253.499053466
 10
-6712.43976809
 20
251.865747864
 10
-6824.19658811
 20
250.232446623
 10
-6935.95340822
 20
248.599149349
 10
-7047.71022841
 20
246.965855696
 10
-7159.46704867
 20
245.332565353
 10
-7271.22386901
 20
243.699278048
 10
-7382.98068942
 20
242.065993535
 10
-7494.73750988
 20
240.432711594
 10
-7606.4943304
 20
238.79943203
 10
-7718.25115096
 20
237.166154665
 10
-7830.00797158
 20
235.532879339
 10
-7941.76479224
 20
233.899605907
 10
-8053.52161294
 20
232.266334237
 10
-8165.27843368
 20
230.63306421
 10
-8277.03525445
 20
228.999795718
 10
-8388.79207526
 20
227.366528659
 10
-8500.5488961
 20
225.733262944
 10
-8612.30571697
 20
224.099998488
 10
-8724.06253786
 20
222.466735216
 10
-8835.81935879
 20
220.833473055
 10
-8947.57617973
 20
219.200211941
 10
-9059.3330007
 20
217.566951815
 10
-9171.08982169
 20
215.93369262
 10
-9282.8466427
 20
214.300434304
 10
-9394.60346373
 20
212.66717682
 10
-9506.36028478
 20
211.033920124
 10
-9618.11710584
 20
209.400664174
 10
-9729.87392692
 20
207.767408932
 10
-9841.63074802
 20
206.134154362
 10
-9953.38756913
 20
204.50090043
 10
-10065.1443903
 20
202.867647105
 10
-10176.9012114
 20
201.234394358
 10
-10288.6580325
 20
199.601142162
 10
-10400.4148537
 20
197.967890491
 10
-10512.1716749
 20
196.33463932
 10
-10623.9284961
 20
194.701388627
 10
-10735.6853173
 20
193.06813839
 10
-10847.4421385
 20
191.43488859
 10
-10959.1989597
 20
189.801639208
 10
-11070.9557809
 20
188.168390225
 10
-11182.7126022
 20
186.535141626
 10
-11294.4694234
 20
184.901893393
 10
-11406.2262447
 20
183.268645512
 10
-11517.9830659
 20
181.635397969
 10
-11629.7398872
 20
180.002150751
 10
-11741.4967085
 20
178.368903843
 10
-11853.2535297
 20
176.735657236
 10
-11965.010351
 20
175.102410916
 10
-12076.7671723
 20
173.469164873
 10
-12188.5239936
 20
171.835919097
 10
-12300.2808149
 20
170.202673577
 10
-12412.0376362
 20
168.569428305
 10
-12523.7944576
 20
166.936183272
 10
-12635.5512789
 20
165.302938468
 10
-12747.3081002
 20
163.669693887
 10
-12859.0649215
 20
162.036449519
 10
-12970.8217429
 20
160.403205359
 10
-13082.5785642
 20
158.769961398
 10
-13194.3353856
 20
157.13671763
 10
-13306.0922069
 20
155.503474049
 10
-13417.8490283
 20
153.870230649
 10
-13529.6058496
 20
152.236987423
 10
-13641.362671
 20
150.603744366
 10
-13753.1194924
 20
148.970501473
 10
-13864.8763137
 20
147.337258738
 10
-13976.6331351
 20
145.704016157
 10
-14088.3899565
 20
144.070773725
 10
-14200.1467779
 20
142.437531436
 10
-14311.9035993
 20
140.804289288
 10
-14423.6604207
 20
139.171047276
 10
-14535.417242
 20
137.537805395
 10
-14647.1740634
 20
135.904563642
 10
-14758.9308848
 20
134.271322013
 10
-14870.6877062
 20
132.638080505
 10
-14982.4445276
 20
131.004839113
 10
-15094.201349
 20
129.371597836
 10
-15205.9581705
 20
127.738356669
 10
-15317.7149919
 20
126.10511561
 10
-15429.4718133
 20
124.471874655
 10
-15541.2286347
 20
122.838633802
 10
-15652.9854561
 20
121.205393048
 10
-15764.7422775
 20
119.57215239
  0
LWPOLYLINE
  5
218
330
1F
100
AcDbEntity
  8
main_beam_width
100
AcDbPolyline
 90
10
 70
0
43
0.0
 10
106.399275935
 20
106.351846729
 10
116.226560528
 20
103.563935416
 10
126.053845121
 20
100.776024103
 10
135.881129714
 20
97.9881127895
 10
145.708414307
 20
95.2002014767
 10
155.5356989
 20
92.412290164
 10
165.362983493
 20
89.6243788516
 10
175.190268087
 20
86.8364675394
 10
185.01755268
 20
84.0485562273
 10
194.844837273
 20
81.2606449154
  0
LWPOLYLINE
  5
219
330
1F
100
AcDbEntity
  8
main_beam_width
100
AcDbPolyline
 90
10
 70
0
43
0.0
 10
-106.403176893
 20
-106.355745949
 10
-96.6268215752
 20
-109.128514734
 10
-86.8504662572
 20
-111.90128352
 10
-77.0741109392
 20
-114.674052306
 10
-67.2977556213
 20
-117.446821092
 10
-57.5214003034
 20
-120.219589878
 10
-47.7450449856
 20
-122.992358664
 10
-37.9686896678
 20
-125.765127451
 10
-28.1923343501
 20
-128.537896237
 10
-18.4159790325
 20
-131.310665024
  0
LWPOLYLINE
  5
21a
330
1F
100
AcDbEntity
  8
main_beam_width
100
AcDbPolyline
 90
10
 70
0
43
0.0
 10
-15764.7423292
 20
119.57965855
 10
-14001.2826284
 20
118.109330192
 10
-12237.8229275
 20
116.639025249
 10
-10474.3632266
 20
115.168743788
 10
-8710.90352563
 20
113.698485878
 10
-6947.44382468
 20
112.228251588
 10
-5183.98412372
 20
110.758040986
 10
-3420.52442273
 20
109.287854142
 10
-1657.06472173
 20
107.817691125
 10
106.394979295
 20
106.347552005
  0
LWPOLYLINE
  5
21b
330
1F
100
AcDbEntity
  8
main_beam_width
100
AcDbPolyline
 90
10
 70
0
43
0.0
 10
-15762.3374713
 20
-95.1504177797
 10
-14022.7896938
 20
-96.3958397711
 10
-12283.2419163
 20
-97.6412845455
 10
-10543.6941388
 20
-98.8867521683
 10
-8804.14636132
 20
-100.132242705
 10
-7064.59858387
 20
-101.377756222
 10
-5325.05080644
 20
-102.623292785
 10
-3585.50302904
 20
-103.86885246
 10
-1845.95525165
 20
-105.114435314
 10
-106.407474274
 20
-106.360041414
  0
LWPOLYLINE
  5
21c
330
1F
100
AcDbEntity
  8
main_beam_width
100
AcDbPolyline
 90
10
 70
0
43
0.0
 10
87.1186085896
 20
49928.9119184
 10
87.118329905
 20
49917.7924565
 10
87.1180512209
 20
49906.6729947
 10
87.1177725373
 20
49895.5535328
 10
87.1174938542
 20
49884.4340709
 10
87.1172151716
 20
49873.314609
 10
87.1169364895
 20
49862.1951472
 10
87.1166578078
 20
49851.0756853
 10
87.1163791267
 20
49839.9562234
 10
87.116100446
 20
49828.8367616
  0
LWPOLYLINE
  5
21d
330
1F
100
AcDbEntity
  8
main_beam_width
100
AcDbPolyline
 90
10
 70
0
43
0.0
 10
-119.90549323
 20
49928.9119184
 10
-119.905214967
 20
49917.8092857
 10
-119.904936704
 20
49906.706653
 10
-119.904658443
 20
49895.6040203
 10
-119.904380181
 20
49884.5013876
 10
-119.90410192
 20
49873.3987549
 10
-119.90382366
 20
49862.2961222
 10
-119.9035454
 20
49851.1934895
 10
-119.903267141
 20
49840.0908568
 10
-119.902988882
 20
49828.9882241
  0
LWPOLYLINE
  5
21e
330
1F
100
AcDbEntity
  8
main_beam_width
100
AcDbPolyline
 90
10
 70
0
43
0.0
 10
-119.909518691
 20
49828.9882289
 10
-119.909071416
 20
49840.090861
 10
-119.908624141
 20
49851.1934932
 10
-119.908176866
 20
49862.2961254
 10
-119.907729592
 20
49873.3987576
 10
-119.907282319
 20
49884.5013897
 10
-119.906835046
 20
49895.6040219
 10
-119.906387773
 20
49906.7066541
 10
-119.905940501
 20
49917.8092862
 10
-119.90549323
 20
49928.9119184
  0
LWPOLYLINE
  5
21f
330
1F
100
AcDbEntity
  8
main_beam_width
100
AcDbPolyline
 90
10
 70
0
43
0.0
 10
87.1226401535
 20
49828.8367568
 10
87.1221922
 20
49839.9562192
 10
87.121744247
 20
49851.0756816
 10
87.1212962944
 20
49862.195144
 10
87.1208483424
 20
49873.3146064
 10
87.1204003909
 20
49884.4340688
 10
87.1199524398
 20
49895.5535312
 10
87.1195044893
 20
49906.6729936
 10
87.1190565392
 20
49917.792456
 10
87.1186085896
 20
49928.9119184
  0
LWPOLYLINE
  5
220
330
1F
100
AcDbEntity
  8
main_beam_width
100
AcDbPolyline
 90
10
 70
0
43
0.0
 10
-106.407474274
 20
-106.360041414
 10
-107.906722529
 20
5442.01198894
 10
-109.406210147
 20
10990.3840192
 10
-110.905939347
 20
16538.7560494
 10
-112.405912374
 20
22087.1280795
 10
-113.906131499
 20
27635.5001096
 10
-115.406599019
 20
33183.8721395
 10
-116.907317258
 20
38732.2441694
 10
-118.408288569
 20
44280.6161992
 10
-119.90951533
 20
49828.9882289
  0
LWPOLYLINE
  5
221
330
1F
100
AcDbEntity
  8
main_beam_width
100
AcDbPolyline
 90
10
 70
0
43
0.0
 10
106.394979295
 20
106.347552005
 10
104.252638234
 20
5631.06857444
 10
102.110534573
 20
11155.789597
 10
99.9686705052
 20
16680.5106195
 10
97.8270482469
 20
22205.2316422
 10
95.6856700409
 20
27729.952665
 10
93.544538156
 20
33254.6736878
 10
91.4036548874
 20
38779.3947107
 10
89.2630225571
 20
44304.1157337
 10
87.1226435144
 20
49828.8367568
  0
LWPOLYLINE
  5
222
330
1F
100
AcDbEntity
  8
main_beam_width
100
AcDbPolyline
 90
10
 70
0
43
0.0
 10
87.1160983553
 20
49828.8367616
 10
88.7332578696
 20
44303.5920763
 10
90.3506746365
 20
38778.3473911
 10
91.9683501586
 20
33253.102706
 10
93.5862859483
 20
27727.8580209
 10
95.2044835277
 20
22202.613336
 10
96.8229444288
 20
16677.3686511
 10
98.4416701937
 20
11152.1239663
 10
100.060662374
 20
5626.87928165
 10
101.679922533
 20
101.634597056
  0
LWPOLYLINE
  5
223
330
1F
100
AcDbEntity
  8
main_beam_width
100
AcDbPolyline
 90
10
 70
0
43
0.0
 10
-119.902990973
 20
49828.9882241
 10
-117.876342963
 20
44281.1420548
 10
-115.849954322
 20
38733.2958854
 10
-113.823826569
 20
33185.4497159
 10
-111.797961236
 20
27637.6035463
 10
-109.772359865
 20
22089.7573766
 10
-107.747024005
 20
16541.9112069
 10
-105.721955219
 20
10994.065037
 10
-103.697155077
 20
5446.21886708
 10
-101.672625161
 20
-101.627302937
  0
LWPOLYLINE
  5
224
330
1F
100
AcDbEntity
  8
main_beam_width
100
AcDbPolyline
 90
10
 70
0
43
0.0
 10
101.677415159
 20
101.6320908
 10
104.455847657
 20
91.8195798699
 10
107.234280156
 20
82.0070689399
 10
110.012712654
 20
72.1945580099
 10
112.791145153
 20
62.38204708
 10
115.569577652
 20
52.5695361502
 10
118.348010151
 20
42.7570252204
 10
121.126442651
 20
32.9445142907
 10
123.90487515
 20
23.132003361
 10
126.68330765
 20
13.3194924314
  0
LWPOLYLINE
  5
225
330
1F
100
AcDbEntity
  8
main_beam_width
100
AcDbPolyline
 90
10
 70
0
43
0.0
 10
-101.675132216
 20
-101.629808875
 10
-98.9102773567
 20
-111.392873141
 10
-96.1454224972
 20
-121.155937407
 10
-93.3805676379
 20
-130.919001673
 10
-90.6157127789
 20
-140.682065939
 10
-87.85085792
 20
-150.445130206
 10
-85.0860030614
 20
-160.208194472
 10
-82.321148203
 20
-169.971258738
 10
-79.5562933448
 20
-179.734323005
 10
-76.7914384868
 20
-189.497387271
  0
LWPOLYLINE
  5
226
330
1F
100
AcDbEntity
  8
main_beam_width
100
AcDbPolyline
 90
10
 70
0
43
0.0
 10
-101.672625161
 20
-101.627302937
 10
-1841.75712799
 20
-100.216520002
 10
-3581.84163085
 20
-98.8057638561
 10
-5321.92613372
 20
-97.3950345495
 10
-7062.01063662
 20
-95.9843321317
 10
-8802.09513954
 20
-94.5736566523
 10
-10542.1796425
 20
-93.163008161
 10
-12282.2641454
 20
-91.7523867076
 10
-14022.3486484
 20
-90.3417923421
 10
-15762.4331514
 20
-88.9312251145
  0
LWPOLYLINE
  5
227
330
1F
100
AcDbEntity
  8
main_beam_width
100
AcDbPolyline
 90
10
 70
0
43
0.0
 10
101.679922533
 20
101.634597056
 10
-1661.2510359
 20
102.937338954
 10
-3424.18199431
 20
104.240108345
 10
-5187.1129527
 20
105.542905281
 10
-6950.04391106
 20
106.845729811
 10
-8712.97486941
 20
108.148581989
 10
-10475.9058277
 20
109.451461866
 10
-12238.836786
 20
110.754369493
 10
-14001.7677443
 20
112.057304923
 10
-15764.6987026
 20
113.360268208
  0
LWPOLYLINE
  5
228
330
1F
100
AcDbEntity
  8
main_beam_width
100
AcDbPolyline
 90
100
 70
0
43
0.0
 10
-15764.6986555
 20
113.353670069
 10
-15652.942113
 20
115.032125621
 10
-15541.1855705
 20
116.710581288
 10
-15429.429028
 20
118.389037074
 10
-15317.6724856
 20
120.067492981
 10
-15205.9159431
 20
121.745949014
 10
-15094.1594006
 20
123.424405175
 10
-14982.4028582
 20
125.102861469
 10
-14870.6463157
 20
126.781317899
 10
-14758.8897733
 20
128.45977447
 10
-14647.1332308
 20
130.138231186
 10
-14535.3766884
 20
131.81668805
 10
-14423.6201459
 20
133.495145068
 10
-14311.8636035
 20
135.173602244
 10
-14200.107061
 20
136.852059583
 10
-14088.3505186
 20
138.53051709
 10
-13976.5939762
 20
140.20897477
 10
-13864.8374337
 20
141.88743263
 10
-13753.0808913
 20
143.565890674
 10
-13641.3243489
 20
145.244348909
 10
-13529.5678065
 20
146.922807341
 10
-13417.8112641
 20
148.601265977
 10
-13306.0547217
 20
150.279724824
 10
-13194.2981793
 20
151.958183888
 10
-13082.5416369
 20
153.636643177
 10
-12970.7850945
 20
155.315102699
 10
-12859.0285521
 20
156.993562463
 10
-12747.2720097
 20
158.672022476
 10
-12635.5154674
 20
160.350482749
 10
-12523.758925
 20
162.02894329
 10
-12412.0023827
 20
163.707404109
 10
-12300.2458403
 20
165.385865217
 10
-12188.489298
 20
167.064326625
 10
-12076.7327556
 20
168.742788345
 10
-11964.9762133
 20
170.421250387
 10
-11853.219671
 20
172.099712766
 10
-11741.4631287
 20
173.778175495
 10
-11629.7065864
 20
175.456638588
 10
-11517.9500441
 20
177.135102059
 10
-11406.1935018
 20
178.813565925
 10
-11294.4369595
 20
180.492030203
 10
-11182.6804172
 20
182.170494909
 10
-11070.923875
 20
183.848960064
 10
-10959.1673327
 20
185.527425685
 10
-10847.4107905
 20
187.205891795
 10
-10735.6542483
 20
188.884358415
 10
-10623.8977061
 20
190.56282557
 10
-10512.1411639
 20
192.241293284
 10
-10400.3846217
 20
193.919761583
 10
-10288.6280795
 20
195.598230497
 10
-10176.8715374
 20
197.276700055
 10
-10065.1149952
 20
198.95517029
 10
-9953.35845309
 20
200.633641236
 10
-9841.60191098
 20
202.31211293
 10
-9729.8453689
 20
203.990585411
 10
-9618.08882683
 20
205.669058722
 10
-9506.33228478
 20
207.347532908
 10
-9394.57574275
 20
209.026008017
 10
-9282.81920075
 20
210.704484101
 10
-9171.06265877
 20
212.382961218
 10
-9059.30611682
 20
214.061439427
 10
-8947.54957489
 20
215.739918795
 10
-8835.79303299
 20
217.418399393
 10
-8724.03649112
 20
219.096881296
 10
-8612.27994929
 20
220.77536459
 10
-8500.52340748
 20
222.453849364
 10
-8388.76686572
 20
224.132335717
 10
-8277.01032399
 20
225.810823757
 10
-8165.25378231
 20
227.489313603
 10
-8053.49724067
 20
229.167805382
 10
-7941.74069908
 20
230.846299236
 10
-7829.98415754
 20
232.524795322
 10
-7718.22761605
 20
234.203293812
 10
-7606.47107463
 20
235.881794894
 10
-7494.71453327
 20
237.56029878
 10
-7382.95799198
 20
239.238805703
 10
-7271.20145077
 20
240.917315925
 10
-7159.44490964
 20
242.595829735
 10
-7047.6883686
 20
244.274347462
 10
-6935.93182766
 20
245.952869473
 10
-6824.17528683
 20
247.631396183
 10
-6712.41874612
 20
249.309928061
 10
-6600.66220554
 20
250.988465645
 10
-6488.90566511
 20
252.667009545
 10
-6377.14912484
 20
254.345560465
 10
-6265.39258475
 20
256.024119215
 10
-6153.63604487
 20
257.702686737
 10
-6041.87950521
 20
259.381264129
 10
-5930.12296582
 20
261.05985268
 10
-5818.36642671
 20
262.738453915
 10
-5706.60988795
 20
264.417069648
 10
-5594.85334957
 20
266.095702058
 10
-5483.09681163
 20
267.774353783
 10
-5371.34027422
 20
269.453028049
 10
-5259.58373743
 20
271.131728842
 10
-5147.82720136
 20
272.810461145
 10
-5036.07066618
 20
274.489231274
 10
-4924.31413205
 20
276.168047354
 10
-4812.55759924
 20
277.846920014
 10
-4700.80106807
 20
279.525863437
  0
LWPOLYLINE
  5
229
330
1F
100
AcDbEntity
  8
main_beam_width
100
AcDbPolyline
 90
100
 70
0
43
0.0
 10
-15762.433102
 20
-88.9344601068
 10
-15650.6965809
 20
-85.4328917491
 10
-15538.9600598
 20
-81.9313235067
 10
-15427.2235386
 20
-78.4297553827
 10
-15315.4870175
 20
-74.9281873805
 10
-15203.7504963
 20
-71.4266195035
 10
-15092.0139752
 20
-67.9250517553
 10
-14980.277454
 20
-64.4234841397
 10
-14868.5409328
 20
-60.9219166604
 10
-14756.8044117
 20
-57.4203493215
 10
-14645.0678905
 20
-53.9187821272
 10
-14533.3313693
 20
-50.4172150817
 10
-14421.5948482
 20
-46.9156481897
 10
-14309.858327
 20
-43.4140814558
 10
-14198.1218058
 20
-39.9125148849
 10
-14086.3852846
 20
-36.4109484821
 10
-13974.6487634
 20
-32.9093822528
 10
-13862.9122422
 20
-29.4078162023
 10
-13751.175721
 20
-25.9062503366
 10
-13639.4391998
 20
-22.4046846617
 10
-13527.7026786
 20
-18.9031191838
 10
-13415.9661574
 20
-15.4015539095
 10
-13304.2296362
 20
-11.8999888457
 10
-13192.493115
 20
-8.39842399952
 10
-13080.7565938
 20
-4.89685937854
 10
-12969.0200725
 20
-1.39529499059
 10
-12857.2835513
 20
2.10626915611
 10
-12745.5470301
 20
5.60783305293
 10
-12633.8105088
 20
9.10939669084
 10
-12522.0739875
 20
12.6109600604
 10
-12410.3374663
 20
16.1125231515
 10
-12298.600945
 20
19.6140859539
 10
-12186.8644237
 20
23.1156484566
 10
-12075.1279025
 20
26.617210648
 10
-11963.3913812
 20
30.1187725159
 10
-11851.6548599
 20
33.6203340477
 10
-11739.9183386
 20
37.1218952298
 10
-11628.1818173
 20
40.6234560481
 10
-11516.4452959
 20
44.1250164875
 10
-11404.7087746
 20
47.6265765324
 10
-11292.9722533
 20
51.1281361661
 10
-11181.2357319
 20
54.6296953708
 10
-11069.4992105
 20
58.131254128
 10
-10957.7626892
 20
61.6328124178
 10
-10846.0261678
 20
65.1343702194
 10
-10734.2896464
 20
68.6359275105
 10
-10622.553125
 20
72.1374842676
 10
-10510.8166036
 20
75.6390404656
 10
-10399.0800821
 20
79.1405960779
 10
-10287.3435607
 20
82.6421510761
 10
-10175.6070392
 20
86.14370543
 10
-10063.8705177
 20
89.6452591073
 10
-9952.13399623
 20
93.1468120736
 10
-9840.39747472
 20
96.6483642922
 10
-9728.66095319
 20
100.149915724
 10
-9616.92443163
 20
103.651466326
 10
-9505.18791006
 20
107.153016053
 10
-9393.45138847
 20
110.654564857
 10
-9281.71486685
 20
114.156112686
 10
-9169.97834521
 20
117.657659483
 10
-9058.24182355
 20
121.159205187
 10
-8946.50530186
 20
124.660749733
 10
-8834.76878014
 20
128.162293049
 10
-8723.03225839
 20
131.66383506
 10
-8611.29573661
 20
135.165375681
 10
-8499.55921479
 20
138.666914822
 10
-8387.82269293
 20
142.168452384
 10
-8276.08617104
 20
145.669988259
 10
-8164.34964911
 20
149.171522329
 10
-8052.61312713
 20
152.673054466
 10
-7940.8766051
 20
156.174584528
 10
-7829.14008302
 20
159.676112358
 10
-7717.40356089
 20
163.177637786
 10
-7605.66703869
 20
166.679160622
 10
-7493.93051643
 20
170.180680654
 10
-7382.1939941
 20
173.682197649
 10
-7270.4574717
 20
177.183711347
 10
-7158.72094921
 20
180.685221455
 10
-7046.98442663
 20
184.186727649
 10
-6935.24790395
 20
187.688229559
 10
-6823.51138116
 20
191.189726771
 10
-6711.77485825
 20
194.691218815
 10
-6600.03833521
 20
198.192705155
 10
-6488.30181202
 20
201.69418518
 10
-6376.56528867
 20
205.195658186
 10
-6264.82876514
 20
208.697123362
 10
-6153.09224141
 20
212.198579768
 10
-6041.35571744
 20
215.700026306
 10
-5929.61919322
 20
219.201461686
 10
-5817.8826687
 20
222.702884385
 10
-5706.14614385
 20
226.204292587
 10
-5594.40961862
 20
229.705684114
 10
-5482.67309293
 20
233.207056329
 10
-5370.93656672
 20
236.708406007
 10
-5259.2000399
 20
240.209729161
 10
-5147.46351235
 20
243.71102081
 10
-5035.72698392
 20
247.212274636
 10
-4923.99045442
 20
250.713482517
 10
-4812.25392362
 20
254.214633824
 10
-4700.51739117
 20
257.715714377
  0
LWPOLYLINE
  5
22a
330
1F
100
AcDbEntity
  8
main_beam_width
100
AcDbPolyline
 90
58
 70
0
43
0.0
 10
-4700.51739473
 20
257.715929387
 10
-4959.49289442
 20
257.255059949
 10
-5218.46839263
 20
256.793671598
 10
-5477.44388925
 20
256.331722072
 10
-5736.41938414
 20
255.869164489
 10
-5995.39487716
 20
255.405946722
 10
-6254.37036814
 20
254.942010658
 10
-6513.3458569
 20
254.477291341
 10
-6772.32134323
 20
254.011715965
 10
-7031.29682689
 20
253.545202686
 10
-7290.27230763
 20
253.077659233
 10
-7549.24778515
 20
252.608981246
 10
-7808.22325911
 20
252.139050322
 10
-8067.19872913
 20
251.66773167
 10
-8326.17419478
 20
251.194871321
 10
-8585.14965555
 20
250.720292774
 10
-8844.12511087
 20
250.243792968
 10
-9103.10056006
 20
249.765137424
 10
-9362.07600236
 20
249.28405438
 10
-9621.05143688
 20
248.80022769
 10
-9880.02686256
 20
248.313288238
 10
-10139.0022782
 20
247.822803553
 10
-10397.9776823
 20
247.328265286
 10
-10656.9530732
 20
246.829074201
 10
-10915.9284489
 20
246.32452233
 10
-11174.9038069
 20
245.813772105
 10
-11433.8791446
 20
245.295832487
 10
-11692.8544586
 20
244.76953271
 10
-11951.8297449
 20
244.233495164
 10
-12210.804999
 20
243.686110514
 10
-12469.7802156
 20
243.125520507
 10
-12728.7553887
 20
242.549616967
 10
-12987.7305117
 20
241.956068893
 10
-13246.7055776
 20
241.342391789
 10
-13505.6805793
 20
240.706071804
 10
-13764.6555099
 20
240.044748493
 10
-14023.6303639
 20
239.356442154
 10
-14282.6051375
 20
238.639788094
 10
-14541.579829
 20
237.894222026
 10
-14800.5544393
 20
237.120062554
 10
-15059.5289718
 20
236.318464176
 10
-15318.5034315
 20
235.491256136
 10
-15577.477825
 20
234.640715868
 10
-15836.4521593
 20
233.769334895
 10
-16095.4264416
 20
232.879621112
 10
-16354.4006786
 20
231.973957924
 10
-16613.3748766
 20
231.054520542
 10
-16872.3490409
 20
230.123238454
 10
-17131.3231763
 20
229.181789853
 10
-17390.2972869
 20
228.231615283
 10
-17649.2713763
 20
227.273941032
 10
-17908.2454473
 20
226.309806009
 10
-18167.2195025
 20
225.340088461
 10
-18426.193544
 20
224.3655306
 10
-18685.1675734
 20
223.386760344
 10
-18944.1415925
 20
222.404309998
 10
-19203.1156024
 20
221.418632028
 10
-19462.0896042
 20
220.430112255
  0
LWPOLYLINE
  5
22b
330
1F
100
AcDbEntity
  8
main_beam_width
100
AcDbPolyline
 90
58
 70
0
43
0.0
 10
-4700.80107347
 20
279.526434515
 10
-4959.77112525
 20
278.516978312
 10
-5218.74117851
 20
277.508041039
 10
-5477.71123336
 20
276.499664961
 10
-5736.68128993
 20
275.491896962
 10
-5995.65134838
 20
274.484789171
 10
-6254.62140887
 20
273.478399704
 10
-6513.59147158
 20
272.472793518
 10
-6772.56153672
 20
271.468043425
 10
-7031.53160452
 20
270.464231269
 10
-7290.50167525
 20
269.461449328
 10
-7549.4717492
 20
268.459801964
 10
-7808.44182671
 20
267.459407587
 10
-8067.41190815
 20
266.460400993
 10
-8326.38199398
 20
265.462936158
 10
-8585.35208468
 20
264.467189593
 10
-8844.32218083
 20
263.473364366
 10
-9103.29228311
 20
262.481694967
 10
-9362.26239227
 20
261.492453172
 10
-9621.23250923
 20
260.505955139
 10
-9880.20263502
 20
259.522570002
 10
-10139.1727709
 20
258.542730252
 10
-10398.1429182
 20
257.56694426
 10
-10657.1130788
 20
256.595811289
 10
-10916.0832546
 20
255.630039334
 10
-11175.053448
 20
254.670465998
 10
-11434.0236618
 20
253.718082356
 10
-11692.9938993
 20
252.774059212
 10
-11951.9641645
 20
251.839774216
 10
-12210.9344619
 20
250.916836737
 10
-12469.9047968
 20
250.007105052
 10
-12728.8751751
 20
249.112687343
 10
-12987.8456036
 20
248.235914584
 10
-13246.8160891
 20
247.379271198
 10
-13505.786639
 20
246.545270905
 10
-13764.7572598
 20
245.736273951
 10
-14023.7279573
 20
244.95425978
 10
-14282.6987352
 20
244.200592794
 10
-14541.6695952
 20
243.475836986
 10
-14800.6405363
 20
242.77967351
 10
-15059.6115554
 20
242.110947704
 10
-15318.5826471
 20
241.467830257
 10
-15577.5538051
 20
240.848043756
 10
-15836.5250222
 20
240.249096764
 10
-16095.4962913
 20
239.668481513
 10
-16354.4676058
 20
239.10381474
 10
-16613.4389593
 20
238.552921375
 10
-16872.4103465
 20
238.013872062
 10
-17131.3817625
 20
237.484988723
 10
-17390.3532033
 20
236.96483091
 10
-17649.3246654
 20
236.452172416
 10
-17908.2961458
 20
235.9459744
 10
-18167.2676421
 20
235.445358668
 10
-18426.2391521
 20
234.949583052
 10
-18685.210674
 20
234.45801967
 10
-18944.1822064
 20
233.970136246
 10
-19203.153748
 20
233.485480334
 10
-19462.1252976
 20
233.003666136
  0
LWPOLYLINE
  5
22c
330
1F
100
AcDbEntity
  8
main_beam_width
100
AcDbPolyline
 90
10
 70
0
43
0.0
 10
126.685795874
 20
13.32197261
 10
129.116594197
 20
-1732.02640986
 10
131.547419329
 20
-3477.3747923
 10
133.978271321
 20
-5222.72317469
 10
136.409150222
 20
-6968.07155705
 10
138.840056081
 20
-8713.41993937
 10
141.270988949
 20
-10458.7683216
 10
143.701948874
 20
-12204.1167039
 10
146.132935907
 20
-13949.4650861
 10
148.563950098
 20
-15694.8134683
  0
LWPOLYLINE
  5
22d
330
1F
100
AcDbEntity
  8
main_beam_width
100
AcDbPolyline
 90
10
 70
0
43
0.0
 10
-76.7889505773
 20
-189.494907406
 10
-74.2664135829
 20
-1912.07057133
 10
-71.7439027082
 20
-3634.64623528
 10
-69.2214180006
 20
-5357.22189928
 10
-66.698959508
 20
-7079.79756331
 10
-64.1765272779
 20
-8802.37322738
 10
-61.6541213582
 20
-10524.9488915
 10
-59.1317417968
 20
-12247.5245556
 10
-56.6093886418
 20
-13970.1002198
 10
-54.0870619413
 20
-15692.675884
  0
LWPOLYLINE
  5
22e
330
1F
100
AcDbEntity
  8
main_beam_width
100
AcDbPolyline
 90
100
 70
0
43
0.0
 10
-54.0903064991
 20
-15692.6758366
 10
-50.6455472255
 20
-15580.4782559
 10
-47.2007880674
 20
-15468.2806751
 10
-43.7560290282
 20
-15356.0830943
 10
-40.3112701111
 20
-15243.8855136
 10
-36.8665113197
 20
-15131.6879328
 10
-33.4217526575
 20
-15019.490352
 10
-29.9769941284
 20
-14907.2927713
 10
-26.5322357361
 20
-14795.0951905
 10
-23.0874774847
 20
-14682.8976097
 10
-19.6427193785
 20
-14570.7000289
 10
-16.1979614218
 20
-14458.5024481
 10
-12.7532036192
 20
-14346.3048674
 10
-9.30844597538
 20
-14234.1072866
 10
-5.86368849531
 20
-14121.9097058
 10
-2.41893118413
 20
-14009.712125
 10
1.02582595279
 20
-13897.5145442
 10
4.47058290987
 20
-13785.3169634
 10
7.91533968128
 20
-13673.1193825
 10
11.3600962609
 20
-13560.9218017
 10
14.8048526424
 20
-13448.7242209
 10
18.2496088192
 20
-13336.5266401
 10
21.6943647843
 20
-13224.3290592
 10
25.1391205304
 20
-13112.1314784
 10
28.5838760499
 20
-12999.9338976
 10
32.028631335
 20
-12887.7363167
 10
35.4733863772
 20
-12775.5387359
 10
38.9181411679
 20
-12663.341155
 10
42.3628956979
 20
-12551.1435742
 10
45.8076499576
 20
-12438.9459933
 10
49.252403937
 20
-12326.7484124
 10
52.6971576254
 20
-12214.5508315
 10
56.1419110117
 20
-12102.3532506
 10
59.5866640843
 20
-11990.1556697
 10
63.0314168309
 20
-11877.9580888
 10
66.4761692384
 20
-11765.7605079
 10
69.9209212933
 20
-11653.562927
 10
73.3656729811
 20
-11541.3653461
 10
76.8104242867
 20
-11429.1677651
 10
80.255175194
 20
-11316.9701842
 10
83.6999256861
 20
-11204.7726032
 10
87.1446757451
 20
-11092.5750223
 10
90.5894253519
 20
-10980.3774413
 10
94.0341744866
 20
-10868.1798603
 10
97.4789231277
 20
-10755.9822793
 10
100.923671253
 20
-10643.7846983
 10
104.368418838
 20
-10531.5871173
 10
107.813165857
 20
-10419.3895363
 10
111.257912284
 20
-10307.1919552
 10
114.702658088
 20
-10194.9943742
 10
118.147403241
 20
-10082.7967931
 10
121.592147708
 20
-9970.599212
 10
125.036891454
 20
-9858.4016309
 10
128.481634443
 20
-9746.20404977
 10
131.926376632
 20
-9634.00646863
 10
135.371117981
 20
-9521.80888747
 10
138.815858441
 20
-9409.61130629
 10
142.260597964
 20
-9297.41372509
 10
145.705336496
 20
-9185.21614387
 10
149.150073979
 20
-9073.01856262
 10
152.594810351
 20
-8960.82098135
 10
156.039545544
 20
-8848.62340005
 10
159.484279485
 20
-8736.42581872
 10
162.929012096
 20
-8624.22823737
 10
166.373743291
 20
-8512.03065598
 10
169.818472976
 20
-8399.83307456
 10
173.26320105
 20
-8287.6354931
 10
176.707927401
 20
-8175.4379116
 10
180.152651908
 20
-8063.24033006
 10
183.597374438
 20
-7951.04274848
 10
187.042094843
 20
-7838.84516684
 10
190.486812964
 20
-7726.64758516
 10
193.931528622
 20
-7614.45000342
 10
197.376241619
 20
-7502.25242162
 10
200.820951738
 20
-7390.05483976
 10
204.265658735
 20
-7277.85725783
 10
207.710362338
 20
-7165.65967582
 10
211.155062244
 20
-7053.46209372
 10
214.599758112
 20
-6941.26451154
 10
218.044449558
 20
-6829.06692925
 10
221.489136145
 20
-6716.86934686
 10
224.933817381
 20
-6604.67176435
 10
228.378492702
 20
-6492.4741817
 10
231.823161464
 20
-6380.2765989
 10
235.267822924
 20
-6268.07901594
 10
238.712476223
 20
-6155.8814328
 10
242.157120362
 20
-6043.68384945
 10
245.601754173
 20
-5931.48626587
 10
249.04637628
 20
-5819.28868202
 10
252.49098505
 20
-5707.09109788
 10
255.935578531
 20
-5594.89351338
 10
259.380154375
 20
-5482.6959285
 10
262.824709722
 20
-5370.49834315
 10
266.269241062
 20
-5258.30075726
 10
269.713744033
 20
-5146.10317073
 10
273.158213149
 20
-5033.90558343
 10
276.602641413
 20
-4921.70799522
 10
280.047019758
 20
-4809.51040588
 10
283.491336217
 20
-4697.31281515
 10
286.935574671
 20
-4585.11522266
  0
LWPOLYLINE
  5
22f
330
1F
100
AcDbEntity
  8
main_beam_width
100
AcDbPolyline
 90
100
 70
0
43
0.0
 10
148.557324606
 20
-15694.8134253
 10
150.168259543
 20
-15582.5968848
 10
151.779194596
 20
-15470.3803444
 10
153.390129768
 20
-15358.1638039
 10
155.001065061
 20
-15245.9472634
 10
156.612000481
 20
-15133.730723
 10
158.22293603
 20
-15021.5141825
 10
159.833871712
 20
-14909.2976421
 10
161.44480753
 20
-14797.0811016
 10
163.05574349
 20
-14684.8645612
 10
164.666679595
 20
-14572.6480207
 10
166.277615849
 20
-14460.4314803
 10
167.888552258
 20
-14348.2149398
 10
169.499488825
 20
-14235.9983994
 10
171.110425556
 20
-14123.781859
 10
172.721362456
 20
-14011.5653185
 10
174.33229953
 20
-13899.3487781
 10
175.943236785
 20
-13787.1322377
 10
177.554174225
 20
-13674.9156973
 10
179.165111856
 20
-13562.6991569
 10
180.776049686
 20
-13450.4826165
 10
182.386987721
 20
-13338.2660761
 10
183.997925967
 20
-13226.0495357
 10
185.608864433
 20
-13113.8329953
 10
187.219803124
 20
-13001.6164549
 10
188.830742051
 20
-12889.3999145
 10
190.44168122
 20
-12777.1833741
 10
192.052620641
 20
-12664.9668338
 10
193.663560323
 20
-12552.7502934
 10
195.274500275
 20
-12440.533753
 10
196.885440508
 20
-12328.3172127
 10
198.496381031
 20
-12216.1006723
 10
200.107321857
 20
-12103.884132
 10
201.718262996
 20
-11991.6675917
 10
203.329204462
 20
-11879.4510513
 10
204.940146266
 20
-11767.234511
 10
206.551088424
 20
-11655.0179707
 10
208.162030948
 20
-11542.8014304
 10
209.772973855
 20
-11430.5848901
 10
211.38391716
 20
-11318.3683498
 10
212.99486088
 20
-11206.1518096
 10
214.605805034
 20
-11093.9352693
 10
216.216749639
 20
-10981.7187291
 10
217.827694718
 20
-10869.5021888
 10
219.438640289
 20
-10757.2856486
 10
221.049586377
 20
-10645.0691084
 10
222.660533005
 20
-10532.8525682
 10
224.271480199
 20
-10420.636028
 10
225.882427986
 20
-10308.4194878
 10
227.493376394
 20
-10196.2029476
 10
229.104325455
 20
-10083.9864075
 10
230.715275202
 20
-9971.76986732
 10
232.326225669
 20
-9859.55332719
 10
233.937176894
 20
-9747.33678709
 10
235.548128918
 20
-9635.120247
 10
237.159081784
 20
-9522.90370693
 10
238.770035538
 20
-9410.68716689
 10
240.380990229
 20
-9298.47062686
 10
241.991945912
 20
-9186.25408686
 10
243.602902644
 20
-9074.03754687
 10
245.213860488
 20
-8961.82100692
 10
246.82481951
 20
-8849.60446699
 10
248.435779784
 20
-8737.38792709
 10
250.046741388
 20
-8625.17138722
 10
251.657704409
 20
-8512.95484738
 10
253.26866894
 20
-8400.73830757
 10
254.879635083
 20
-8288.52176781
 10
256.490602949
 20
-8176.30522808
 10
258.101572659
 20
-8064.08868839
 10
259.712544347
 20
-7951.87214874
 10
261.323518159
 20
-7839.65560915
 10
262.934494256
 20
-7727.4390696
 10
264.545472817
 20
-7615.22253012
 10
266.156454039
 20
-7503.00599069
 10
267.767438139
 20
-7390.78945132
 10
269.378425363
 20
-7278.57291203
 10
270.98941598
 20
-7166.35637281
 10
272.600410295
 20
-7054.13983368
 10
274.211408649
 20
-6941.92329463
 10
275.822411426
 20
-6829.70675569
 10
277.433419062
 20
-6717.49021686
 10
279.04443205
 20
-6605.27367814
 10
280.655450954
 20
-6493.05713956
 10
282.266476419
 20
-6380.84060113
 10
283.877509187
 20
-6268.62406286
 10
285.488550116
 20
-6156.40752478
 10
287.099600207
 20
-6044.1909869
 10
288.710660628
 20
-5931.97444926
 10
290.321732755
 20
-5819.75791188
 10
291.93281822
 20
-5707.5413748
 10
293.543918976
 20
-5595.32483806
 10
295.155037373
 20
-5483.10830172
 10
296.766176269
 20
-5370.89176584
 10
298.377339175
 20
-5258.67523051
 10
299.988530455
 20
-5146.45869581
 10
301.599755593
 20
-5034.24216188
 10
303.211021588
 20
-4922.02562886
 10
304.82233751
 20
-4809.80909697
 10
306.433715323
 20
-4697.59256648
 10
308.04517115
 20
-4585.37603774
  0
LWPOLYLINE
  5
230
330
1F
100
AcDbEntity
  8
main_beam_width
100
AcDbPolyline
 90
62
 70
0
43
0.0
 10
308.045723144
 20
-4585.37604261
 10
307.252838016
 20
-4827.03283742
 10
306.460451166
 20
-5068.68963332
 10
305.668603074
 20
-5310.34643039
 10
304.877338628
 20
-5552.00322874
 10
304.086707729
 20
-5793.66002848
 10
303.29676599
 20
-6035.31682972
 10
302.507575557
 20
-6276.9736326
 10
301.719206066
 20
-6518.63043727
 10
300.931735769
 20
-6760.28724391
 10
300.145252863
 20
-7001.94405271
 10
299.359857062
 20
-7243.60086388
 10
298.575661461
 20
-7485.25767768
 10
297.792794758
 20
-7726.91449438
 10
297.011403908
 20
-7968.5713143
 10
296.231657302
 20
-8210.22813782
 10
295.45374859
 20
-8451.88496535
 10
294.67790129
 20
-8693.54179739
 10
293.904374347
 20
-8935.1986345
 10
293.133468865
 20
-9176.85547733
 10
292.365536239
 20
-9418.51232667
 10
291.600988001
 20
-9660.16918339
 10
290.840307682
 20
-9901.82604857
 10
290.084065044
 20
-10143.4829234
 10
289.332933
 20
-10385.1398095
 10
288.587707444
 20
-10626.7967084
 10
287.849329967
 20
-10868.4536223
 10
287.118912944
 20
-11110.1105537
 10
286.397765621
 20
-11351.7675052
 10
285.687418367
 20
-11593.4244804
 10
284.989640111
 20
-11835.081483
 10
284.306441065
 20
-12076.7385175
 10
283.640049573
 20
-12318.3955887
 10
282.992849635
 20
-12560.0527018
 10
282.36726667
 20
-12801.7098622
 10
281.765596742
 20
-13043.3670748
 10
281.189790837
 20
-13285.024344
 10
280.641228219
 20
-13526.6816726
 10
280.120531347
 20
-13768.3390622
 10
279.627475478
 20
-14009.9965121
 10
279.161021806
 20
-14251.6540202
 10
278.719463342
 20
-14493.3115827
 10
278.300639001
 20
-14734.9691949
 10
277.902160133
 20
-14976.6268515
 10
277.521605362
 20
-15218.2845473
 10
277.156661829
 20
-15459.9422771
 10
276.805210935
 20
-15701.6000365
 10
276.465368409
 20
-15943.2578213
 10
276.135492273
 20
-16184.9156278
 10
275.814171198
 20
-16426.573453
 10
275.500202698
 20
-16668.2312942
 10
275.192567446
 20
-16909.8891494
 10
274.89040347
 20
-17151.5470164
 10
274.592982203
 20
-17393.2048939
 10
274.299687262
 20
-17634.8627803
 10
274.009996168
 20
-17876.5206746
 10
273.723464867
 20
-18118.1785758
 10
273.439714797
 20
-18359.8364831
 10
273.158422122
 20
-18601.4943958
 10
272.879308828
 20
-18843.1523133
 10
272.60213536
 20
-19084.8102349
 10
272.326694536
 20
-19326.4681604
  0
LWPOLYLINE
  5
231
330
1F
100
AcDbEntity
  8
main_beam_width
100
AcDbPolyline
 90
62
 70
0
43
0.0
 10
286.93578125
 20
-4585.11522594
 10
286.672588399
 20
-4826.77669767
 10
286.408897289
 20
-5068.43816832
 10
286.144667443
 20
-5310.09963778
 10
285.879853973
 20
-5551.76110597
 10
285.614406982
 20
-5793.42257277
 10
285.348270858
 20
-6035.08403807
 10
285.081383458
 20
-6276.74550173
 10
284.813675152
 20
-6518.40696359
 10
284.545067689
 20
-6760.06842349
 10
284.275472877
 20
-7001.72988123
 10
284.004791008
 20
-7243.3913366
 10
283.73290899
 20
-7485.05278934
 10
283.459698134
 20
-7726.71423918
 10
283.185011492
 20
-7968.3756858
 10
282.908680682
 20
-8210.03712882
 10
282.630512063
 20
-8451.69856783
 10
282.350282129
 20
-8693.36000233
 10
282.067731949
 20
-8935.02143177
 10
281.782560436
 20
-9176.68285547
 10
281.494416211
 20
-9418.34427268
 10
281.202887766
 20
-9660.0056825
 10
280.907491594
 20
-9901.66708386
 10
280.607657963
 20
-10143.3284755
 10
280.302713994
 20
-10384.989856
 10
279.991863829
 20
-10626.6512236
 10
279.674165922
 20
-10868.3125763
 10
279.348507944
 20
-11109.9739115
 10
279.013580696
 20
-11351.6352265
 10
278.667853857
 20
-11593.2965179
 10
278.309558533
 20
-11834.9577818
 10
277.936684534
 20
-12076.6190139
 10
277.547003506
 20
-12318.2802092
 10
277.13813139
 20
-12559.9413626
 10
276.707642647
 20
-12801.6024688
 10
276.253241022
 20
-13043.2635227
 10
275.772975266
 20
-13284.9245201
 10
275.265465806
 20
-13526.585458
 10
274.730089861
 20
-13768.246335
 10
274.167071892
 20
-14009.9071516
 10
273.577450503
 20
-14251.5679101
 10
272.96293258
 20
-14493.2286141
 10
272.325679198
 20
-14734.8892685
 10
271.668079077
 20
-14976.5498784
 10
270.992553712
 20
-15218.2104492
 10
270.301416102
 20
-15459.8709858
 10
269.596784992
 20
-15701.531493
 10
268.880544791
 20
-15943.1919748
 10
268.154337598
 20
-16184.8524348
 10
267.419574848
 20
-16426.5128761
 10
266.677459115
 20
-16668.1733014
 10
265.929009798
 20
-16909.8337128
 10
265.175088932
 20
-17151.4941122
 10
264.416425129
 20
-17393.1545013
 10
263.653634814
 20
-17634.8148814
 10
262.887240499
 20
-17876.4752536
 10
262.117686261
 20
-18118.1356189
 10
261.345350687
 20
-18359.7959781
 10
260.570557629
 20
-18601.456332
 10
259.793585114
 20
-18843.1166811
 10
259.014672711
 20
-19084.7770259
 10
258.23402761
 20
-19326.437367
  0
LWPOLYLINE
  5
232
330
1F
100
AcDbEntity
  8
main_beam_width
100
AcDbPolyline
 90
37
 70
0
43
0.0
 10
-119.90549323
 20
49928.9119184
 10
-115.44731749
 20
131550.05619
 10
-111.052947175
 20
213171.200462
 10
-106.731693927
 20
294792.344735
 10
-102.494567272
 20
376413.489007
 10
-98.3546154644
 20
458034.633279
 10
-94.3273262154
 20
539655.777551
 10
-90.4310867006
 20
621276.921823
 10
-86.6876916043
 20
702898.066095
 10
-83.1228687375
 20
784519.210367
 10
-79.7667599556
 20
866140.354639
 10
-76.6542471338
 20
947761.498911
 10
-73.8249491431
 20
1029382.64318
 10
-71.3226469894
 20
1111003.78746
 10
-69.1938518419
 20
1192624.93173
 10
-67.4852727446
 20
1274246.076
 10
-66.2401392712
 20
1355867.22027
 10
-65.4937216273
 20
1437488.36454
 10
-65.2688740769
 20
1519109.50882
 10
-65.5727509875
 20
1600730.65309
 10
-66.3957136962
 20
1682351.79736
 10
-67.7127959278
 20
1763972.94163
 10
-69.4872379726
 20
1845594.0859
 10
-71.6750160044
 20
1927215.23018
 10
-74.2292427501
 20
2008836.37445
 10
-77.1036836627
 20
2090457.51872
 10
-80.2551144444
 20
2172078.66299
 10
-83.6446066171
 20
2253699.80726
 10
-87.2379989369
 20
2335320.95154
 10
-91.0058372376
 20
2416942.09581
 10
-94.9230158487
 20
2498563.24008
 10
-98.9682843243
 20
2580184.38435
 10
-103.123721437
 20
2661805.52862
 10
-107.374232982
 20
2743426.6729
 10
-111.707100278
 20
2825047.81717
 10
-116.11158855
 20
2906668.96144
 10
-120.578614738
 20
2988290.10571
  0
LWPOLYLINE
  5
233
330
1F
100
AcDbEntity
  8
main_beam_width
100
AcDbPolyline
 90
37
 70
0
43
0.0
 10
87.1186085896
 20
49928.9119184
 10
82.6604328729
 20
131550.05619
 10
78.2660625814
 20
213171.200462
 10
73.944809356
 20
294792.344735
 10
69.7076827238
 20
376413.489007
 10
65.5677309391
 20
458034.633279
 10
61.540441713
 20
539655.777551
 10
57.6442022212
 20
621276.921823
 10
53.9008071477
 20
702898.066095
 10
50.3359843039
 20
784519.210367
 10
46.9798755449
 20
866140.354639
 10
43.867362746
 20
947761.498911
 10
41.0380647782
 20
1029382.64318
 10
38.5357626474
 20
1111003.78746
 10
36.4069675228
 20
1192624.93173
 10
34.6983884485
 20
1274246.076
 10
33.453254998
 20
1355867.22027
 10
32.706837377
 20
1437488.36454
 10
32.4819898495
 20
1519109.50882
 10
32.785866783
 20
1600730.65309
 10
33.6088295147
 20
1682351.79736
 10
34.9259117691
 20
1763972.94163
 10
36.7003538369
 20
1845594.0859
 10
38.8881318916
 20
1927215.23018
 10
41.4423586602
 20
2008836.37445
 10
44.3167995957
 20
2090457.51872
 10
47.4682304003
 20
2172078.66299
 10
50.8577225959
 20
2253699.80726
 10
54.4511149387
 20
2335320.95154
 10
58.2189532623
 20
2416942.09581
 10
62.1361318964
 20
2498563.24008
 10
66.1814003948
 20
2580184.38435
 10
70.33683753
 20
2661805.52862
 10
74.587349098
 20
2743426.6729
 10
78.9202164175
 20
2825047.81717
 10
83.324704712
 20
2906668.96144
 10
87.7917309234
 20
2988290.10571
  0
LWPOLYLINE
  5
234
330
1F
100
AcDbEntity
  8
main_beam_width
100
AcDbPolyline
 90
10
 70
0
43
0.0
 10
53214.049028
 20
-110.712283603
 10
53202.9295968
 20
-110.71200375
 10
53191.8101657
 20
-110.711723898
 10
53180.6907345
 20
-110.711444046
 10
53169.5713033
 20
-110.711164195
 10
53158.4518721
 20
-110.710884344
 10
53147.332441
 20
-110.710604494
 10
53136.2130098
 20
-110.710324644
 10
53125.0935786
 20
-110.710044795
 10
53113.9741475
 20
-110.709764946
  0
LWPOLYLINE
  5
235
330
1F
100
AcDbEntity
  8
main_beam_width
100
AcDbPolyline
 90
10
 70
0
43
0.0
 10
53214.049028
 20
95.556605606
 10
53202.9463646
 20
95.5563261753
 10
53191.8437012
 20
95.556046745
 10
53180.7410378
 20
95.5557673152
 10
53169.6383744
 20
95.555487886
 10
53158.535711
 20
95.5552084572
 10
53147.4330476
 20
95.5549290289
 10
53136.3303842
 20
95.5546496011
 10
53125.2277208
 20
95.5543701738
 10
53114.1250574
 20
95.554090747
  0
LWPOLYLINE
  5
236
330
1F
100
AcDbEntity
  8
main_beam_width
100
AcDbPolyline
 90
10
 70
0
43
0.0
 10
53114.1250622
 20
95.560636035
 10
53125.2277251
 20
95.5601882076
 10
53136.330388
 20
95.5597403806
 10
53147.4330508
 20
95.5592925542
 10
53158.5357137
 20
95.5588447283
 10
53169.6383765
 20
95.5583969028
 10
53180.7410394
 20
95.5579490779
 10
53191.8437023
 20
95.5575012534
 10
53202.9463651
 20
95.5570534295
 10
53214.049028
 20
95.556605606
  0
LWPOLYLINE
  5
237
330
1F
100
AcDbEntity
  8
main_beam_width
100
AcDbPolyline
 90
10
 70
0
43
0.0
 10
53113.9741427
 20
-110.716320119
 10
53125.0935744
 20
-110.715871616
 10
53136.2130061
 20
-110.715423112
 10
53147.3324378
 20
-110.71497461
 10
53158.4518695
 20
-110.714526107
 10
53169.5713012
 20
-110.714077605
 10
53180.6907329
 20
-110.713629104
 10
53191.8101646
 20
-110.713180603
 10
53202.9295963
 20
-110.712732103
 10
53214.049028
 20
-110.712283603
  0
LWPOLYLINE
  5
238
330
1F
100
AcDbEntity
  8
main_beam_width
100
AcDbPolyline
 90
10
 70
0
43
0.0
 10
194.840495584
 20
81.2563172634
 10
6074.76100335
 20
82.8445783097
 10
11954.681511
 20
84.4331098463
 10
17834.6020186
 20
86.0219145412
 10
23714.5225261
 20
87.6109950957
 10
29594.4430335
 20
89.2003542447
 10
35474.3635408
 20
90.789994757
 10
41354.2840481
 20
92.3799194358
 10
47234.2045552
 20
93.9701311196
 10
53114.1250622
 20
95.5606326822
  0
LWPOLYLINE
  5
239
330
1F
100
AcDbEntity
  8
main_beam_width
100
AcDbPolyline
 90
10
 70
0
43
0.0
 10
-18.4203214752
 20
-131.314993427
 10
5885.17906306
 20
-129.0251363
 10
11788.7784477
 20
-126.73555176
 10
17692.3778324
 20
-124.446242507
 10
23595.9772172
 20
-122.157211273
 10
29499.5766021
 20
-119.868460826
 10
35403.1759871
 20
-117.579993968
 10
41306.7753722
 20
-115.291813535
 10
47210.3747574
 20
-113.003922401
 10
53113.9741427
 20
-110.716323472
  0
LWPOLYLINE
  5
23a
330
1F
100
AcDbEntity
  8
main_beam_width
100
AcDbPolyline
 90
10
 70
0
43
0.0
 10
101.350236031
 20
101.305057518
 10
104.128645891
 20
91.4926253534
 10
106.907055752
 20
81.6801931892
 10
109.685465612
 20
71.8677610252
 10
112.463875473
 20
62.0553288612
 10
115.242285334
 20
52.2428966973
 10
118.020695195
 20
42.4304645334
 10
120.799105056
 20
32.6180323696
 10
123.577514918
 20
22.8056002059
 10
126.35592478
 20
12.9931680422
  0
LWPOLYLINE
  5
23b
330
1F
100
AcDbEntity
  8
main_beam_width
100
AcDbPolyline
 90
10
 70
0
43
0.0
 10
-101.34795693
 20
-101.302779433
 10
-98.5830794315
 20
-111.065922462
 10
-95.8182019329
 20
-120.829065492
 10
-93.0533244344
 20
-130.592208522
 10
-90.2884469362
 20
-140.355351552
 10
-87.5235694383
 20
-150.118494582
 10
-84.7586919405
 20
-159.881637612
 10
-81.993814443
 20
-169.644780642
 10
-79.2289369457
 20
-179.407923672
 10
-76.4640594486
 20
-189.171066702
  0
LWPOLYLINE
  5
23c
330
1F
100
AcDbEntity
  8
main_beam_width
100
AcDbPolyline
 90
10
 70
0
43
0.0
 10
-13.3536869622
 20
-126.264740155
 10
-23.1308280695
 20
-123.491188963
 10
-32.9079691769
 20
-120.717637771
 10
-42.6851102843
 20
-117.944086579
 10
-52.4622513919
 20
-115.170535387
 10
-62.2393924994
 20
-112.396984196
 10
-72.0165336071
 20
-109.623433005
 10
-81.7936747148
 20
-106.849881814
 10
-91.5708158226
 20
-104.076330623
 10
-101.34795693
 20
-101.302779433
  0
LWPOLYLINE
  5
23d
330
1F
100
AcDbEntity
  8
main_beam_width
100
AcDbPolyline
 90
10
 70
0
43
0.0
 10
189.788758995
 20
76.2209137475
 10
179.962256443
 20
79.0080408321
 10
170.135753891
 20
81.795167917
 10
160.30925134
 20
84.5822950021
 10
150.482748788
 20
87.3694220875
 10
140.656246237
 20
90.156549173
 10
130.829743685
 20
92.9436762588
 10
121.003241134
 20
95.7308033448
 10
111.176738583
 20
98.5179304311
 10
101.350236031
 20
101.305057518
  0
LWPOLYLINE
  5
23e
330
1F
100
AcDbEntity
  8
main_beam_width
100
AcDbPolyline
 90
10
 70
0
43
0.0
 10
53113.9741475
 20
-110.709762854
 10
47210.9380021
 20
-112.436607896
 10
41307.9018567
 20
-114.163749943
 10
35404.8657115
 20
-115.891190863
 10
29501.8295664
 20
-117.618932539
 10
23598.7934214
 20
-119.346976864
 10
17695.7572765
 20
-121.075325748
 10
11792.7211317
 20
-122.803981111
 10
5889.68498695
 20
-124.532944888
 10
-13.3511576567
 20
-126.262219027
  0
LWPOLYLINE
  5
23f
330
1F
100
AcDbEntity
  8
main_beam_width
100
AcDbPolyline
 90
10
 70
0
43
0.0
 10
53114.1250574
 20
95.5540928389
 10
47233.643528
 20
93.4050456381
 10
41353.1619984
 20
91.2562931699
 10
35472.6804687
 20
89.1078372815
 10
29592.198939
 20
86.9596798329
 10
23711.7174091
 20
84.811822697
 10
17831.2358791
 20
82.6642677598
 10
11950.7543491
 20
80.5170169205
 10
6070.27281889
 20
78.3700720914
 10
189.791288624
 20
76.223435198
  0
LWPOLYLINE
  5
240
330
1F
100
AcDbEntity
  8
main_beam_width
100
AcDbPolyline
 90
10
 70
0
43
0.0
 10
126.358408906
 20
12.9956441373
 10
128.789057909
 20
-1732.31624266
 10
131.219733981
 20
-3477.62812942
 10
133.650437173
 20
-5222.94001614
 10
136.081167534
 20
-6968.25190283
 10
138.511925116
 20
-8713.56378947
 10
140.942709968
 20
-10458.8756761
 10
143.373522141
 20
-12204.1875626
 10
145.804361686
 20
-13949.4994492
 10
148.235228654
 20
-15694.8113357
  0
LWPOLYLINE
  5
241
330
1F
100
AcDbEntity
  8
main_beam_width
100
AcDbPolyline
 90
10
 70
0
43
0.0
 10
-76.4615756361
 20
-189.16859092
 10
-73.9388875761
 20
-1911.78104582
 10
-71.416225891
 20
-3634.39350076
 10
-68.8935906289
 20
-5357.00595573
 10
-66.3709818382
 20
-7079.61841075
 10
-63.8483995674
 20
-8802.2308658
 10
-61.3258438649
 20
-10524.8433209
 10
-58.8033147793
 20
-12247.455776
 10
-56.2808123595
 20
-13970.0682312
 10
-53.7583366542
 20
-15692.6806864
  0
LWPOLYLINE
  5
242
330
1F
100
AcDbEntity
  8
main_beam_width
100
AcDbPolyline
 90
100
 70
0
43
0.0
 10
-53.7615655742
 20
-15692.6806392
 10
-50.319762
 20
-15580.4830158
 10
-46.8779585425
 20
-15468.2853923
 10
-43.436155205
 20
-15356.0877688
 10
-39.9943519909
 20
-15243.8901453
 10
-36.5525489036
 20
-15131.6925219
 10
-33.1107459469
 20
-15019.4948984
 10
-29.6689431244
 20
-14907.2972749
 10
-26.2271404402
 20
-14795.0996514
 10
-22.7853378983
 20
-14682.9020279
 10
-19.3435355029
 20
-14570.7044044
 10
-15.9017332586
 20
-14458.5067809
 10
-12.4599311698
 20
-14346.3091574
 10
-9.0181292414
 20
-14234.1115339
 10
-5.57632747834
 20
-14121.9139104
 10
-2.13452588583
 20
-14009.7162869
 10
1.30727553072
 20
-13897.5186634
 10
4.74907676567
 20
-13785.3210399
 10
8.19087781311
 20
-13673.1234163
 10
11.6326786669
 20
-13560.9257928
 10
15.0744793207
 20
-13448.7281693
 10
18.5162797676
 20
-13336.5305457
 10
21.9580800008
 20
-13224.3329222
 10
25.3998800129
 20
-13112.1352987
 10
28.8416797962
 20
-12999.9376751
 10
32.2834793428
 20
-12887.7400515
 10
35.7252786441
 20
-12775.542428
 10
39.1670776914
 20
-12663.3448044
 10
42.6088764754
 20
-12551.1471808
 10
46.0506749865
 20
-12438.9495573
 10
49.4924732145
 20
-12326.7519337
 10
52.9342711487
 20
-12214.5543101
 10
56.3760687778
 20
-12102.3566865
 10
59.8178660902
 20
-11990.1590629
 10
63.2596630732
 20
-11877.9614392
 10
66.701459714
 20
-11765.7638156
 10
70.1432559986
 20
-11653.566192
 10
73.5850519125
 20
-11541.3685683
 10
77.0268474405
 20
-11429.1709447
 10
80.4686425663
 20
-11316.973321
 10
83.9104372728
 20
-11204.7756974
 10
87.3522315418
 20
-11092.5780737
 10
90.7940253543
 20
-10980.38045
 10
94.23581869
 20
-10868.1828263
 10
97.6776115273
 20
-10755.9852026
 10
101.119403843
 20
-10643.7875789
 10
104.561195614
 20
-10531.5899551
 10
108.002986814
 20
-10419.3923314
 10
111.444777415
 20
-10307.1947076
 10
114.886567388
 20
-10194.9970839
 10
118.328356702
 20
-10082.7994601
 10
121.770145324
 20
-9970.60183627
 10
125.211933218
 20
-9858.40421245
 10
128.653720347
 20
-9746.20658861
 10
132.09550667
 20
-9634.00896476
 10
135.537292143
 20
-9521.81134088
 10
138.979076719
 20
-9409.61371698
 10
142.420860348
 20
-9297.41609307
 10
145.862642976
 20
-9185.21846913
 10
149.304424545
 20
-9073.02084516
 10
152.746204992
 20
-8960.82322118
 10
156.187984249
 20
-8848.62559716
 10
159.629762242
 20
-8736.42797312
 10
163.071538891
 20
-8624.23034904
 10
166.51331411
 20
-8512.03272494
 10
169.955087804
 20
-8399.83510079
 10
173.396859871
 20
-8287.63747662
 10
176.838630199
 20
-8175.4398524
 10
180.280398664
 20
-8063.24222814
 10
183.722165132
 20
-7951.04460384
 10
187.163929455
 20
-7838.84697949
 10
190.60569147
 20
-7726.64935508
 10
194.047450998
 20
-7614.45173062
 10
197.48920784
 20
-7502.2541061
 10
200.930961774
 20
-7390.05648152
 10
204.372712555
 20
-7277.85885686
 10
207.814459909
 20
-7165.66123212
 10
211.25620353
 20
-7053.46360731
 10
214.697943072
 20
-6941.2659824
 10
218.139678147
 20
-6829.06835739
 10
221.581408316
 20
-6716.87073226
 10
225.02313308
 20
-6604.67310702
 10
228.46485187
 20
-6492.47548164
 10
231.906564036
 20
-6380.27785612
 10
235.348268826
 20
-6268.08023042
 10
238.789965375
 20
-6155.88260454
 10
242.231652672
 20
-6043.68497846
 10
245.673329537
 20
-5931.48735214
 10
249.114994581
 20
-5819.28972555
 10
252.556646153
 20
-5707.09209866
 10
255.998282284
 20
-5594.89447142
 10
259.439900599
 20
-5482.69684377
 10
262.881498211
 20
-5370.49921567
 10
266.323071573
 20
-5258.30158701
 10
269.764616279
 20
-5146.10395771
 10
273.206126787
 20
-5033.90632764
 10
276.647596026
 20
-4921.70869664
 10
280.089014837
 20
-4809.51106451
 10
283.530371128
 20
-4697.31343096
 10
286.971648612
 20
-4585.11579565
  0
LWPOLYLINE
  5
243
330
1F
100
AcDbEntity
  8
main_beam_width
100
AcDbPolyline
 90
100
 70
0
43
0.0
 10
148.228651458
 20
-15694.8112929
 10
149.842541469
 20
-15582.5947708
 10
151.456431597
 20
-15470.3782486
 10
153.070321845
 20
-15358.1617265
 10
154.684212217
 20
-15245.9452043
 10
156.298102715
 20
-15133.7286822
 10
157.911993344
 20
-15021.51216
 10
159.525884107
 20
-14909.2956379
 10
161.139775008
 20
-14797.0791157
 10
162.753666052
 20
-14684.8625936
 10
164.367557242
 20
-14572.6460715
 10
165.981448584
 20
-14460.4295493
 10
167.595340081
 20
-14348.2130272
 10
169.209231738
 20
-14235.9965051
 10
170.823123561
 20
-14123.779983
 10
172.437015554
 20
-14011.5634608
 10
174.050907723
 20
-13899.3469387
 10
175.664800074
 20
-13787.1304166
 10
177.278692613
 20
-13674.9138945
 10
178.892585345
 20
-13562.6973724
 10
180.506478277
 20
-13450.4808503
 10
182.120371416
 20
-13338.2643282
 10
183.734264769
 20
-13226.0478062
 10
185.348158343
 20
-13113.8312841
 10
186.962052146
 20
-13001.614762
 10
188.575946186
 20
-12889.3982399
 10
190.18984047
 20
-12777.1817179
 10
191.803735009
 20
-12664.9651958
 10
193.417629812
 20
-12552.7486738
 10
195.031524887
 20
-12440.5321517
 10
196.645420246
 20
-12328.3156297
 10
198.259315898
 20
-12216.0991076
 10
199.873211855
 20
-12103.8825856
 10
201.487108129
 20
-11991.6660636
 10
203.101004733
 20
-11879.4495416
 10
204.714901679
 20
-11767.2330196
 10
206.328798981
 20
-11655.0164976
 10
207.942696654
 20
-11542.7999756
 10
209.556594713
 20
-11430.5834536
 10
211.170493174
 20
-11318.3669316
 10
212.784392055
 20
-11206.1504097
 10
214.398291373
 20
-11093.9338877
 10
216.012191148
 20
-10981.7173658
 10
217.626091399
 20
-10869.5008439
 10
219.23999215
 20
-10757.2843219
 10
220.853893421
 20
-10645.0678
 10
222.467795238
 20
-10532.8512781
 10
224.081697626
 20
-10420.6347563
 10
225.695600613
 20
-10308.4182344
 10
227.309504228
 20
-10196.2017125
 10
228.923408502
 20
-10083.9851907
 10
230.537313468
 20
-9971.76866887
 10
232.151219162
 20
-9859.55214706
 10
233.765125621
 20
-9747.33562527
 10
235.379032887
 20
-9635.1191035
 10
236.992941003
 20
-9522.90258175
 10
238.606850016
 20
-9410.68606001
 10
240.220759976
 20
-9298.4695383
 10
241.834670937
 20
-9186.25301662
 10
243.448582957
 20
-9074.03649495
 10
245.0624961
 20
-8961.81997331
 10
246.676410433
 20
-8849.6034517
 10
248.29032603
 20
-8737.38693011
 10
249.904242971
 20
-8625.17040856
 10
251.518161343
 20
-8512.95388704
 10
253.132081239
 20
-8400.73736555
 10
254.746002764
 20
-8288.5208441
 10
256.359926028
 20
-8176.30432269
 10
257.973851154
 20
-8064.08780132
 10
259.587778278
 20
-7951.87128
 10
261.201707548
 20
-7839.65475872
 10
262.815639125
 20
-7727.4382375
 10
264.42957319
 20
-7615.22171633
 10
266.043509943
 20
-7503.00519522
 10
267.657449603
 20
-7390.78867418
 10
269.271392416
 20
-7278.57215321
 10
270.885338657
 20
-7166.35563231
 10
272.499288633
 20
-7054.1391115
 10
274.113242687
 20
-6941.92259079
 10
275.72720121
 20
-6829.70607017
 10
277.341164639
 20
-6717.48954966
 10
278.955133474
 20
-6605.27302928
 10
280.569108283
 20
-6493.05650903
 10
282.183089718
 20
-6380.83998893
 10
283.79707853
 20
-6268.62346899
 10
285.411075585
 20
-6156.40694924
 10
287.025081893
 20
-6044.1904297
 10
288.639098634
 20
-5931.9739104
 10
290.253127199
 20
-5819.75739136
 10
291.867169237
 20
-5707.54087262
 10
293.481226718
 20
-5595.32435423
 10
295.095302018
 20
-5483.10783625
 10
296.709398024
 20
-5370.89131873
 10
298.323518283
 20
-5258.67480175
 10
299.937667202
 20
-5146.45828543
 10
301.551850324
 20
-5034.24176987
 10
303.166074719
 20
-4922.02525524
 10
304.78034955
 20
-4809.80874175
 10
306.394686906
 20
-4697.59222967
 10
308.009103078
 20
-4585.37571936
  0
LWPOLYLINE
  5
244
330
1F
100
AcDbEntity
  8
main_beam_width
100
AcDbPolyline
 90
62
 70
0
43
0.0
 10
308.009650775
 20
-4585.3757242
 10
307.217307006
 20
-4827.03252412
 10
306.425466714
 20
-5068.68932514
 10
305.63417086
 20
-5310.34612734
 10
304.843464873
 20
-5552.00293084
 10
304.05339926
 20
-5793.65973574
 10
303.26403032
 20
-6035.31654216
 10
302.475420969
 20
-6276.97335024
 10
301.687641718
 20
-6518.63016013
 10
300.900771812
 20
-6760.28697201
 10
300.114900579
 20
-7001.94378607
 10
299.330129025
 20
-7243.60060254
 10
298.546571726
 20
-7485.25742166
 10
297.764359077
 20
-7726.91424371
 10
296.983639994
 20
-7968.57106903
 10
296.204585129
 20
-8210.22789799
 10
295.427390754
 20
-8451.88473101
 10
294.652283429
 20
-8693.54156859
 10
293.879525641
 20
-8935.19841131
 10
293.109422614
 20
-9176.85525983
 10
292.342330556
 20
-9418.51211492
 10
291.578666604
 20
-9660.16897751
 10
290.818920816
 20
-9901.82584866
 10
290.06367052
 20
-10143.4827296
 10
289.313597352
 20
-10385.1396219
 10
288.569507156
 20
-10626.7965273
 10
287.832352687
 20
-10868.4534478
 10
287.103258541
 20
-11110.1103859
 10
286.383546818
 20
-11351.7673445
 10
285.67476055
 20
-11593.424327
 10
284.978679728
 20
-11835.0813373
 10
284.297321845
 20
-12076.7383797
 10
283.632915733
 20
-12318.3954592
 10
282.987835406
 20
-12560.0525809
 10
282.364482159
 20
-12801.7097501
 10
281.765111378
 20
-13043.3669716
 10
281.191617323
 20
-13285.0242498
 10
280.645311139
 20
-13526.6815873
 10
280.12674445
 20
-13768.3389854
 10
279.63562947
 20
-14009.9964436
 10
279.170881103
 20
-14251.6539593
 10
278.730767436
 20
-14493.3115289
 10
278.313123316
 20
-14734.9691475
 10
277.915572593
 20
-14976.6268101
 10
277.535717115
 20
-15218.2845113
 10
277.17127245
 20
-15459.9422462
 10
276.82014945
 20
-15701.6000102
 10
276.48049166
 20
-15943.2577993
 10
276.150681908
 20
-16184.9156099
 10
275.829330174
 20
-16426.573439
 10
275.515251827
 20
-16668.2312839
 10
275.207442259
 20
-16909.8891426
 10
274.905051509
 20
-17151.5470131
 10
274.607360751
 20
-17393.2048938
 10
274.313761476
 20
-17634.8627836
 10
274.023737562
 20
-17876.5206811
 10
273.736850094
 20
-18118.1785855
 10
273.452724665
 20
-18359.8364959
 10
273.171040811
 20
-18601.4944116
 10
272.891523259
 20
-18843.1523321
 10
272.613934692
 20
-19084.8102568
 10
272.338069756
 20
-19326.4681852
  0
LWPOLYLINE
  5
245
330
1F
100
AcDbEntity
  8
main_beam_width
100
AcDbPolyline
 90
62
 70
0
43
0.0
 10
286.971854311
 20
-4585.11579891
 10
286.708120089
 20
-4826.77726136
 10
286.443882409
 20
-5068.4387227
 10
286.179100313
 20
-5310.10018286
 10
285.913728373
 20
-5551.76164173
 10
285.647716083
 20
-5793.4230992
 10
285.381007149
 20
-6035.08455514
 10
285.113538657
 20
-6276.74600943
 10
284.8452401
 20
-6518.4074619
 10
284.576032236
 20
-6760.06891239
 10
284.305825741
 20
-7001.73036069
 10
284.034519614
 20
-7243.3918066
 10
283.761999287
 20
-7485.05324984
 10
283.488134368
 20
-7726.71469015
 10
283.212775952
 20
-7968.3761272
 10
282.935753394
 20
-8210.03756061
 10
282.656870432
 20
-8451.69898996
 10
282.375900519
 20
-8693.36041474
 10
282.092581181
 20
-8935.02183439
 10
281.80660721
 20
-9176.68324825
 10
281.517622417
 20
-9418.34465552
 10
281.225209687
 20
-9660.0060553
 10
280.928878988
 20
-9901.66744652
 10
280.628053021
 20
-10143.3288279
 10
280.322050182
 20
-10384.990198
 10
280.010064668
 20
-10626.651555
 10
279.691143766
 20
-10868.3128969
 10
279.364162925
 20
-11109.9742211
 10
279.027800094
 20
-11351.6355249
 10
278.680512285
 20
-11593.2968048
 10
278.320519544
 20
-11834.9580569
 10
277.945804394
 20
-12076.6192768
 10
277.55413799
 20
-12318.2804597
 10
277.143146254
 20
-12559.9416004
 10
276.710427768
 20
-12801.6026936
 10
276.253726948
 20
-13043.2637344
 10
275.771149271
 20
-13284.9247187
 10
275.261383283
 20
-13526.5856435
 10
274.723877042
 20
-13768.2465078
 10
274.158918063
 20
-14009.907312
 10
273.567591247
 20
-14251.5680586
 10
272.951628412
 20
-14493.2287514
 10
272.313194709
 20
-14734.8893951
 10
271.654666359
 20
-14976.5499949
 10
270.978441634
 20
-15218.2105561
 10
270.286805107
 20
-15459.8710835
 10
269.581846068
 20
-15701.5315819
 10
268.865421108
 20
-15943.1920551
 10
268.139147518
 20
-16184.8525069
 10
267.404415422
 20
-16426.5129402
 10
266.662409539
 20
-16668.1733576
 10
265.914134546
 20
-16909.8337613
 10
265.160440464
 20
-17151.4941531
 10
264.402046167
 20
-17393.1545347
 10
263.639560203
 20
-17634.8149074
 10
262.873498726
 20
-17876.4752722
 10
262.104300676
 20
-18118.1356302
 10
261.332340482
 20
-18359.7959821
 10
260.557938625
 20
-18601.4563287
 10
259.781370392
 20
-18843.1166706
 10
259.002873112
 20
-19084.7770082
 10
258.222652146
 20
-19326.4373421
  0
LWPOLYLINE
  5
246
330
1F
100
AcDbEntity
  8
main_beam_width
100
AcDbPolyline
 90
10
 70
0
43
0.0
 10
-101.345454004
 20
-101.300277621
 10
-1841.46686537
 20
-99.8893664132
 10
-3581.58827676
 20
-98.4784822564
 10
-5321.70968817
 20
-97.0676252013
 10
-7061.8310996
 20
-95.6567952981
 10
-8801.95251105
 20
-94.2459925971
 10
-10542.0739225
 20
-92.8352171488
 10
-12282.195334
 20
-91.4244690038
 10
-14022.3167455
 20
-90.0137482127
 10
-15762.4381571
 20
-88.6030548262
  0
LWPOLYLINE
  5
247
330
1F
100
AcDbEntity
  8
main_beam_width
100
AcDbPolyline
 90
10
 70
0
43
0.0
 10
101.352739277
 20
101.307559647
 10
-1661.54160489
 20
102.610174831
 10
-3424.43594904
 20
103.912817773
 10
-5187.33029317
 20
105.215488526
 10
-6950.22463728
 20
106.518187143
 10
-8713.11898136
 20
107.820913675
 10
-10476.0133254
 20
109.123668175
 10
-12238.9076695
 20
110.426450696
 10
-14001.8020135
 20
111.72926129
 10
-15764.6963575
 20
113.03210001
  0
LWPOLYLINE
  5
248
330
1F
100
AcDbEntity
  8
main_beam_width
100
AcDbPolyline
 90
100
 70
0
43
0.0
 10
-15764.6963106
 20
113.025549966
 10
-15652.9397883
 20
114.706943536
 10
-15541.1832659
 20
116.388337223
 10
-15429.4267435
 20
118.069731029
 10
-15317.6702212
 20
119.751124959
 10
-15205.9136988
 20
121.432519015
 10
-15094.1571765
 20
123.1139132
 10
-14982.4006541
 20
124.79530752
 10
-14870.6441318
 20
126.476701978
 10
-14758.8876095
 20
128.158096577
 10
-14647.1310871
 20
129.839491322
 10
-14535.3745648
 20
131.520886218
 10
-14423.6180425
 20
133.202281268
 10
-14311.8615201
 20
134.883676479
 10
-14200.1049978
 20
136.565071854
 10
-14088.3484755
 20
138.246467398
 10
-13976.5919532
 20
139.927863118
 10
-13864.8354309
 20
141.609259019
 10
-13753.0789086
 20
143.290655106
 10
-13641.3223863
 20
144.972051386
 10
-13529.565864
 20
146.653447865
 10
-13417.8093417
 20
148.334844549
 10
-13306.0528194
 20
150.016241446
 10
-13194.2962971
 20
151.697638563
 10
-13082.5397748
 20
153.379035908
 10
-12970.7832526
 20
155.060433487
 10
-12859.0267303
 20
156.741831311
 10
-12747.270208
 20
158.423229386
 10
-12635.5136858
 20
160.104627724
 10
-12523.7571635
 20
161.786026332
 10
-12412.0006413
 20
163.467425221
 10
-12300.2441191
 20
165.148824403
 10
-12188.4875968
 20
166.830223886
 10
-12076.7310746
 20
168.511623685
 10
-11964.9745524
 20
170.19302381
 10
-11853.2180302
 20
171.874424274
 10
-11741.461508
 20
173.555825092
 10
-11629.7049858
 20
175.237226277
 10
-11517.9484636
 20
176.918627845
 10
-11406.1919415
 20
178.600029811
 10
-11294.4354193
 20
180.281432192
 10
-11182.6788972
 20
181.962835007
 10
-11070.922375
 20
183.644238274
 10
-10959.1658529
 20
185.325642013
 10
-10847.4093308
 20
187.007046245
 10
-10735.6528087
 20
188.688450993
 10
-10623.8962866
 20
190.369856279
 10
-10512.1397645
 20
192.051262131
 10
-10400.3832424
 20
193.732668574
 10
-10288.6267204
 20
195.414075638
 10
-10176.8701983
 20
197.095483352
 10
-10065.1136763
 20
198.77689175
 10
-9953.35715432
 20
200.458300866
 10
-9841.60063233
 20
202.139710737
 10
-9729.84411036
 20
203.821121403
 10
-9618.08758842
 20
205.502532906
 10
-9506.33106649
 20
207.183945294
 10
-9394.57454458
 20
208.865358613
 10
-9282.8180227
 20
210.546772918
 10
-9171.06150084
 20
212.228188266
 10
-9059.30497901
 20
213.909604716
 10
-8947.5484572
 20
215.591022337
 10
-8835.79193542
 20
217.272441199
 10
-8724.03541367
 20
218.953861381
 10
-8612.27889196
 20
220.635282966
 10
-8500.52237028
 20
222.316706046
 10
-8388.76584864
 20
223.998130721
 10
-8277.00932703
 20
225.6795571
 10
-8165.25280547
 20
227.360985302
 10
-8053.49628396
 20
229.042415456
 10
-7941.73976249
 20
230.723847707
 10
-7829.98324107
 20
232.405282211
 10
-7718.22671971
 20
234.086719142
 10
-7606.47019842
 20
235.768158692
 10
-7494.71367718
 20
237.449601074
 10
-7382.95715602
 20
239.131046523
 10
-7271.20063494
 20
240.812495302
 10
-7159.44411394
 20
242.493947707
 10
-7047.68759303
 20
244.175404067
 10
-6935.93107222
 20
245.856864754
 10
-6824.17455152
 20
247.538330185
 10
-6712.41803094
 20
249.219800838
 10
-6600.6615105
 20
250.901277252
 10
-6488.9049902
 20
252.582760046
 10
-6377.14847007
 20
254.264249929
 10
-6265.39195012
 20
255.945747721
 10
-6153.63543038
 20
257.627254373
 10
-6041.87891087
 20
259.308770994
 10
-5930.12239162
 20
260.990298885
 10
-5818.36587266
 20
262.671839588
 10
-5706.60935405
 20
264.353394934
 10
-5594.85283583
 20
266.034967126
 10
-5483.09631805
 20
267.716558828
 10
-5371.33980081
 20
269.398173297
 10
-5259.58328419
 20
271.079814562
 10
-5147.8267683
 20
272.761487657
 10
-5036.0702533
 20
274.443198963
 10
-4924.31373938
 20
276.124956688
 10
-4812.55722678
 20
277.806771572
 10
-4700.80071584
 20
279.488657945
  0
LWPOLYLINE
  5
249
330
1F
100
AcDbEntity
  8
main_beam_width
100
AcDbPolyline
 90
100
 70
0
43
0.0
 10
-15762.438108
 20
-88.6062742127
 10
-15650.7015425
 20
-85.107644479
 10
-15538.964977
 20
-81.6090148617
 10
-15427.2284116
 20
-78.110385364
 10
-15315.4918461
 20
-74.6117559893
 10
-15203.7552806
 20
-71.113126741
 10
-15092.0187151
 20
-67.6144976227
 10
-14980.2821496
 20
-64.1158686383
 10
-14868.5455841
 20
-60.6172397916
 10
-14756.8090186
 20
-57.1186110867
 10
-14645.0724531
 20
-53.6199825277
 10
-14533.3358876
 20
-50.1213541191
 10
-14421.5993221
 20
-46.6227258655
 10
-14309.8627566
 20
-43.1240977715
 10
-14198.1261911
 20
-39.6254698421
 10
-14086.3896256
 20
-36.1268420824
 10
-13974.65306
 20
-32.6282144979
 10
-13862.9164945
 20
-29.129587094
 10
-13751.179929
 20
-25.6309598767
 10
-13639.4433634
 20
-22.1323328521
 10
-13527.7067979
 20
-18.6337060264
 10
-13415.9702323
 20
-15.1350794063
 10
-13304.2336668
 20
-11.6364529988
 10
-13192.4971012
 20
-8.13782681101
 10
-13080.7605357
 20
-4.63920085065
 10
-12969.0239701
 20
-1.1405751256
 10
-12857.2874045
 20
2.35805035582
 10
-12745.550839
 20
5.85667558492
 10
-12633.8142734
 20
9.35530055256
 10
-12522.0777078
 20
12.8539252492
 10
-12410.3411422
 20
16.3525496647
 10
-12298.6045766
 20
19.8511737887
 10
-12186.868011
 20
23.3497976099
 10
-12075.1314454
 20
26.8484211168
 10
-11963.3948797
 20
30.3470442971
 10
-11851.6583141
 20
33.8456671379
 10
-11739.9217485
 20
37.3442896256
 10
-11628.1851828
 20
40.8429117459
 10
-11516.4486172
 20
44.3415334837
 10
-11404.7120515
 20
47.840154823
 10
-11292.9754858
 20
51.338775747
 10
-11181.2389201
 20
54.8373962379
 10
-11069.5023544
 20
58.3360162769
 10
-10957.7657887
 20
61.8346358439
 10
-10846.029223
 20
65.3332549179
 10
-10734.2926573
 20
68.8318734763
 10
-10622.5560915
 20
72.3304914955
 10
-10510.8195258
 20
75.8291089501
 10
-10399.08296
 20
79.3277258132
 10
-10287.3463942
 20
82.8263420561
 10
-10175.6098284
 20
86.3249576485
 10
-10063.8732626
 20
89.8235725575
 10
-9952.13669675
 20
93.3221867487
 10
-9840.40013089
 20
96.8208001846
 10
-9728.66356503
 20
100.319412826
 10
-9616.92699914
 20
103.818024629
 10
-9505.19043323
 20
107.31663555
 10
-9393.4538673
 20
110.815245537
 10
-9281.71730134
 20
114.31385454
 10
-9169.98073536
 20
117.812462501
 10
-9058.24416936
 20
121.311069358
 10
-8946.50760333
 20
124.809675046
 10
-8834.77103727
 20
128.308279492
 10
-8723.03447118
 20
131.806882619
 10
-8611.29790506
 20
135.305484343
 10
-8499.5613389
 20
138.804084572
 10
-8387.8247727
 20
142.302683207
 10
-8276.08820647
 20
145.801280138
 10
-8164.35164019
 20
149.299875246
 10
-8052.61507387
 20
152.798468402
 10
-7940.8785075
 20
156.297059463
 10
-7829.14194108
 20
159.79564827
 10
-7717.4053746
 20
163.29423465
 10
-7605.66880806
 20
166.792818412
 10
-7493.93224146
 20
170.291399343
 10
-7382.19567478
 20
173.789977208
 10
-7270.45910803
 20
177.288551741
 10
-7158.72254119
 20
180.787122651
 10
-7046.98597427
 20
184.285689606
 10
-6935.24940724
 20
187.784252235
 10
-6823.5128401
 20
191.282810119
 10
-6711.77627284
 20
194.781362784
 10
-6600.03970544
 20
198.279909688
 10
-6488.3031379
 20
201.778450213
 10
-6376.5665702
 20
205.27698365
 10
-6264.83000231
 20
208.775509179
 10
-6153.09343422
 20
212.27402585
 10
-6041.35686589
 20
215.772532554
 10
-5929.6202973
 20
219.271027988
 10
-5817.88372842
 20
222.769510614
 10
-5706.1471592
 20
226.267978597
 10
-5594.41058959
 20
229.766429738
 10
-5482.67401952
 20
233.264861371
 10
-5370.93744893
 20
236.76327024
 10
-5259.20087772
 20
240.261652317
 10
-5147.46430576
 20
243.760002568
 10
-5035.72773293
 20
247.258314612
 10
-4923.99115902
 20
250.756580243
 10
-4812.25458378
 20
254.254788721
 10
-4700.51800689
 20
257.752925718
  0
LWPOLYLINE
  5
24a
330
1F
100
AcDbEntity
  8
main_beam_width
100
AcDbPolyline
 90
58
 70
0
43
0.0
 10
-4700.51801043
 20
257.753139811
 10
-4959.49349958
 20
257.291712778
 10
-5218.46898725
 20
256.829761427
 10
-5477.4444733
 20
256.367242992
 10
-5736.41995762
 20
255.904110029
 10
-5995.39544003
 20
255.440309775
 10
-6254.37092039
 20
254.975783404
 10
-6513.3463985
 20
254.510465153
 10
-6772.32187415
 20
254.044281302
 10
-7031.29734711
 20
253.57714897
 10
-7290.27281711
 20
253.108974701
 10
-7549.24828385
 20
252.639652784
 10
-7808.22374699
 20
252.169063267
 10
-8067.19920615
 20
251.697069579
 10
-8326.17466088
 20
251.223515698
 10
-8585.15011067
 20
250.74822275
 10
-8844.12555495
 20
250.270984926
 10
-9103.10099302
 20
249.791564554
 10
-9362.07642412
 20
249.309686155
 10
-9621.05184733
 20
248.825029253
 10
-9880.02726159
 20
248.337219678
 10
-10139.0026657
 20
247.845819067
 10
-10397.9780581
 20
247.350312212
 10
-10656.9534371
 20
246.85009192
 10
-10915.9288007
 20
246.344441058
 10
-11174.9041465
 20
245.832511608
 10
-11433.8794716
 20
245.313300817
 10
-11692.8547727
 20
244.785625122
 10
-11951.8300458
 20
244.248093496
 10
-12210.8052863
 20
243.699083476
 10
-12469.780489
 20
243.136725483
 10
-12728.7556477
 20
242.558904162
 10
-12987.7307559
 20
241.963288693
 10
-13246.7058066
 20
241.347405983
 10
-13505.6807927
 20
240.708768584
 10
-13764.6557076
 20
240.045059769
 10
-14023.6305459
 20
239.35436002
 10
-14282.605304
 20
238.635376029
 10
-14541.5799803
 20
237.88761679
 10
-14800.554576
 20
237.111465129
 10
-15059.5290945
 20
236.308121711
 10
-15318.5035411
 20
235.479439593
 10
-15577.4779223
 20
234.627698644
 10
-15836.452245
 20
233.755376155
 10
-16095.4265163
 20
232.86495524
 10
-16354.400743
 20
231.958789597
 10
-16613.374931
 20
231.039024
 10
-16872.3490858
 20
230.107559375
 10
-17131.3232121
 20
229.166048557
 10
-17390.297314
 20
228.215910375
 10
-17649.2713947
 20
227.258352953
 10
-17908.2454573
 20
226.294400245
 10
-18167.2195042
 20
225.324918304
 10
-18426.1935375
 20
224.350639459
 10
-18685.1675589
 20
223.372183641
 10
-18944.14157
 20
222.390076702
 10
-19203.1155719
 20
221.404765896
 10
-19462.0895659
 20
220.416632825
  0
LWPOLYLINE
  5
24b
330
1F
100
AcDbEntity
  8
main_beam_width
100
AcDbPolyline
 90
58
 70
0
43
0.0
 10
-4700.8007212
 20
279.489224586
 10
-4959.7707789
 20
278.480325968
 10
-5218.74083808
 20
277.471951685
 10
-5477.71089887
 20
276.464144506
 10
-5736.6809614
 20
275.456951879
 10
-5995.65102583
 20
274.450426566
 10
-6254.62109232
 20
273.444627396
 10
-6513.59116106
 20
272.439620136
 10
-6772.56123225
 20
271.435478509
 10
-7031.53130614
 20
270.432285398
 10
-7290.50138299
 20
269.430134265
 10
-7549.47146309
 20
268.429130824
 10
-7808.4415468
 20
267.429395033
 10
-8067.41163448
 20
266.43106347
 10
-8326.3817266
 20
265.434292163
 10
-8585.35182366
 20
264.439259994
 10
-8844.32192624
 20
263.446172782
 10
-9103.29203501
 20
262.455268209
 10
-9362.26215076
 20
261.466821766
 10
-9621.2322744
 20
260.481153946
 10
-9880.20240699
 20
259.498638933
 10
-10139.1725498
 20
258.519715112
 10
-10398.1427042
 20
257.544897713
 10
-10657.112872
 20
256.574793955
 10
-10916.0830553
 20
255.610121
 10
-11175.0532563
 20
254.6517269
 10
-11434.0234781
 20
253.700614444
 10
-11692.9937238
 20
252.757967234
 10
-11951.9639976
 20
251.825176333
 10
-12210.9343039
 20
250.90386424
 10
-12469.9046481
 20
249.995900556
 10
-12728.8750362
 20
249.103400639
 10
-12987.8454749
 20
248.228695278
 10
-13246.8159711
 20
247.374257488
 10
-13505.7865318
 20
246.542574583
 10
-13764.7571638
 20
245.735963087
 10
-14023.7278723
 20
244.956342258
 10
-14282.6986612
 20
244.205005115
 10
-14541.6695317
 20
243.482442376
 10
-14800.6404828
 20
242.788270981
 10
-15059.6115112
 20
242.121290109
 10
-15318.5826114
 20
241.479646644
 10
-15577.5537771
 20
240.861060741
 10
-15836.5250012
 20
240.263055199
 10
-16095.4962767
 20
239.68314703
 10
-16354.4675969
 20
239.118982677
 10
-16613.4389557
 20
238.568417508
 10
-16872.4103477
 20
238.029550722
 10
-17131.3817682
 20
237.500729598
 10
-17390.3532133
 20
236.980535403
 10
-17649.3246793
 20
236.467760093
 10
-17908.2961636
 20
235.961379779
 10
-18167.2676635
 20
235.460528459
 10
-18426.239177
 20
234.964473849
 10
-18685.2107024
 20
234.472596054
 10
-18944.1822382
 20
233.984369248
 10
-19203.153783
 20
233.499346199
 10
-19462.1253359
 20
233.017145327
  0
LWPOLYLINE
  5
24c
330
1F
100
AcDbEntity
  8
main_beam_width
100
AcDbPolyline
 90
37
 70
0
43
0.0
 10
53214.049028
 20
95.556605606
 10
134835.1933
 20
91.0918708107
 10
216456.337572
 20
86.6916908241
 10
298077.481844
 20
82.3655405315
 10
379698.626116
 20
78.1246314372
 10
461319.770388
 20
73.9822615744
 10
542940.91466
 20
69.9542267635
 10
624562.058932
 20
66.0592921676
 10
706183.203204
 20
62.3197117497
 10
787804.347476
 20
58.7617627791
 10
869425.491749
 20
55.4162287906
 10
951046.636021
 20
52.3187138104
 10
1032667.78029
 20
49.5096040109
 10
1114288.92456
 20
47.0334227476
 10
1195910.06884
 20
44.9372856689
 10
1277531.21311
 20
43.2682166729
 10
1359152.35738
 20
42.0693067909
 10
1440773.50165
 20
41.375112311
 10
1522394.64592
 20
41.2071837848
 10
1604015.7902
 20
41.5709158506
 10
1685636.93447
 20
42.4547144806
 10
1767258.07874
 20
43.8317647857
 10
1848879.22301
 20
45.663807896
 10
1930500.36729
 20
47.9057911641
 10
2012121.51156
 20
50.5102675051
 10
2093742.65583
 20
53.4308297914
 10
2175363.8001
 20
56.6243561901
 10
2256984.94437
 20
60.0521892119
 10
2338606.08865
 20
63.6805234135
 10
2420227.23292
 20
67.4802875483
 10
2501848.37719
 20
71.4267504692
 10
2583469.52146
 20
75.4990085729
 10
2665090.66573
 20
79.6794512243
 10
2746711.81001
 20
83.9532564873
 10
2828332.95428
 20
88.3079411455
 10
2909954.09855
 20
92.7329723629
 10
2991575.24282
 20
97.2194394363
  0
LWPOLYLINE
  5
24d
330
1F
100
AcDbEntity
  8
main_beam_width
100
AcDbPolyline
 90
37
 70
0
43
0.0
 10
53214.049028
 20
-110.712283603
 10
134835.1933
 20
-106.247548808
 10
216456.337572
 20
-101.847368821
 10
298077.481844
 20
-97.5212185287
 10
379698.626116
 20
-93.2803094343
 10
461319.770388
 20
-89.1379395715
 10
542940.91466
 20
-85.1099047607
 10
624562.058932
 20
-81.2149701647
 10
706183.203204
 20
-77.4753897469
 10
787804.347476
 20
-73.9174407763
 10
869425.491749
 20
-70.5719067877
 10
951046.636021
 20
-67.4743918076
 10
1032667.78029
 20
-64.6652820081
 10
1114288.92456
 20
-62.1891007447
 10
1195910.06884
 20
-60.092963666
 10
1277531.21311
 20
-58.42389467
 10
1359152.35738
 20
-57.224984788
 10
1440773.50165
 20
-56.5307903081
 10
1522394.64592
 20
-56.362861782
 10
1604015.7902
 20
-56.7265938477
 10
1685636.93447
 20
-57.6103924777
 10
1767258.07874
 20
-58.9874427828
 10
1848879.22301
 20
-60.8194858932
 10
1930500.36729
 20
-63.0614691612
 10
2012121.51156
 20
-65.6659455022
 10
2093742.65583
 20
-68.5865077885
 10
2175363.8001
 20
-71.7800341873
 10
2256984.94437
 20
-75.2078672091
 10
2338606.08865
 20
-78.8362014106
 10
2420227.23292
 20
-82.6359655454
 10
2501848.37719
 20
-86.5824284664
 10
2583469.52146
 20
-90.65468657
 10
2665090.66573
 20
-94.8351292214
 10
2746711.81001
 20
-99.1089344844
 10
2828332.95428
 20
-103.463619143
 10
2909954.09855
 20
-107.88865036
 10
2991575.24282
 20
-112.375117433
  0
LWPOLYLINE
  5
24e
330
1F
100
AcDbEntity
  8
main_beam_width
100
AcDbPolyline
 90
10
 70
0
43
0.0
 10
53214.049028
 20
-110.994119847
 10
53202.9295734
 20
-110.994563568
 10
53191.8101188
 20
-110.99500729
 10
53180.6906642
 20
-110.995451012
 10
53169.5712096
 20
-110.995894735
 10
53158.4517549
 20
-110.996338458
 10
53147.3323003
 20
-110.996782182
 10
53136.2128457
 20
-110.997225906
 10
53125.0933911
 20
-110.997669631
 10
53113.9739365
 20
-110.998113356
  0
LWPOLYLINE
  5
24f
330
1F
100
AcDbEntity
  8
main_beam_width
100
AcDbPolyline
 90
10
 70
0
43
0.0
 10
53214.049028
 20
95.8384418501
 10
53202.946388
 20
95.8388849003
 10
53191.8437481
 20
95.8393279511
 10
53180.7411081
 20
95.8397710024
 10
53169.6384682
 20
95.8402140541
 10
53158.5358282
 20
95.8406571064
 10
53147.4331883
 20
95.8411001591
 10
53136.3305483
 20
95.8415432123
 10
53125.2279084
 20
95.841986266
 10
53114.1252684
 20
95.8424293203
  0
LWPOLYLINE
  5
250
330
1F
100
AcDbEntity
  8
main_beam_width
100
AcDbPolyline
 90
18
 70
0
43
0.0
 10
1522394.64621
 20
-56.8225668967
 10
1435972.25814
 20
-57.1122587594
 10
1349549.87007
 20
-57.9713434105
 10
1263127.482
 20
-59.3714955924
 10
1176705.09393
 20
-61.270403385
 10
1090282.70586
 20
-63.6173884971
 10
1003860.31779
 20
-66.3588034019
 10
917437.929725
 20
-69.4422348572
 10
831015.541655
 20
-72.8192078094
 10
744593.153585
 20
-76.4465544232
 10
658170.765516
 20
-80.2868119987
 10
571748.377446
 20
-84.3080193439
 10
485325.989376
 20
-88.4831999303
 10
398903.601307
 20
-92.7897237902
 10
312481.213237
 20
-97.2086608322
 10
226058.825167
 20
-101.72418341
 10
139636.437098
 20
-106.323042122
 10
53214.049028
 20
-110.994119847
  0
LWPOLYLINE
  5
251
330
1F
100
AcDbEntity
  8
main_beam_width
100
AcDbPolyline
 90
18
 70
0
43
0.0
 10
1522394.64621
 20
41.6668888995
 10
1435972.25814
 20
41.9565807623
 10
1349549.87007
 20
42.8156654134
 10
1263127.482
 20
44.2158175954
 10
1176705.09393
 20
46.1147253879
 10
1090282.70586
 20
48.4617105001
 10
1003860.31779
 20
51.2031254049
 10
917437.929725
 20
54.2865568602
 10
831015.541655
 20
57.6635298124
 10
744593.153585
 20
61.2908764262
 10
658170.765516
 20
65.1311340018
 10
571748.377446
 20
69.152341347
 10
485325.989376
 20
73.3275219334
 10
398903.601307
 20
77.6340457933
 10
312481.213237
 20
82.0529828353
 10
226058.825167
 20
86.5685054128
 10
139636.437098
 20
91.1673641256
 10
53214.049028
 20
95.8384418502
  0
LWPOLYLINE
  5
252
330
1F
100
AcDbEntity
  8
main_beam_width
100
AcDbPolyline
 90
23
 70
0
43
0.0
 10
53214.049028
 20
95.8384418501
 10
186775.921473
 20
101.14820908
 10
320337.793918
 20
106.58720714
 10
453899.666364
 20
112.137823433
 10
587461.538809
 20
117.785232699
 10
721023.411254
 20
123.516926352
 10
854585.283699
 20
129.322318422
 10
988147.156144
 20
135.192418911
 10
1121709.02859
 20
141.119564571
 10
1255270.90103
 20
147.097197628
 10
1388832.77348
 20
153.119684086
 10
1522394.64592
 20
159.182164413
 10
1655956.51837
 20
165.280430671
 10
1789518.39082
 20
171.410825142
 10
1923080.26326
 20
177.570156484
 10
2056642.13571
 20
183.755630144
 10
2190204.00815
 20
189.964790425
 10
2323765.8806
 20
196.19547208
 10
2457327.75304
 20
202.44575972
 10
2590889.62549
 20
208.713953661
 10
2724451.49793
 20
214.998541078
 10
2858013.37038
 20
221.298171555
 10
2991575.24282
 20
227.611636293
  0
LWPOLYLINE
  5
253
330
1F
100
AcDbEntity
  8
main_beam_width
100
AcDbPolyline
 90
23
 70
0
43
0.0
 10
53214.049028
 20
-110.994119847
 10
186775.921473
 20
-116.303887078
 10
320337.793918
 20
-121.742885137
 10
453899.666364
 20
-127.29350143
 10
587461.538809
 20
-132.940910696
 10
721023.411254
 20
-138.672604349
 10
854585.283699
 20
-144.477996419
 10
988147.156144
 20
-150.348096909
 10
1121709.02859
 20
-156.275242568
 10
1255270.90103
 20
-162.252875626
 10
1388832.77348
 20
-168.275362083
 10
1522394.64592
 20
-174.33784241
 10
1655956.51837
 20
-180.436108668
 10
1789518.39082
 20
-186.566503139
 10
1923080.26326
 20
-192.725834481
 10
2056642.13571
 20
-198.911308141
 10
2190204.00815
 20
-205.120468422
 10
2323765.8806
 20
-211.351150077
 10
2457327.75304
 20
-217.601437717
 10
2590889.62549
 20
-223.869631659
 10
2724451.49793
 20
-230.154219075
 10
2858013.37038
 20
-236.453849552
 10
2991575.24282
 20
-242.76731429
  0
LWPOLYLINE
  5
254
330
1F
100
AcDbEntity
  8
main_beam_width
100
AcDbPolyline
 90
10
 70
0
43
0.0
 10
106.648275235
 20
106.600735034
 10
109.427482434
 20
96.7874567732
 10
112.206689634
 20
86.9741785121
 10
114.985896833
 20
77.1609002511
 10
117.765104033
 20
67.3476219902
 10
120.544311233
 20
57.5343437293
 10
123.323518433
 20
47.7210654685
 10
126.102725633
 20
37.9077872077
 10
128.881932833
 20
28.094508947
 10
131.661140034
 20
18.2812306863
  0
LWPOLYLINE
  5
255
330
1F
100
AcDbEntity
  8
main_beam_width
100
AcDbPolyline
 90
10
 70
0
43
0.0
 10
-106.652143707
 20
-106.604601782
 10
-103.888061733
 20
-116.366895002
 10
-101.123979759
 20
-126.129188223
 10
-98.3598977859
 20
-135.891481443
 10
-95.5958158126
 20
-145.653774664
 10
-92.8317338395
 20
-155.416067885
 10
-90.0676518666
 20
-165.178361106
 10
-87.3035698939
 20
-174.940654327
 10
-84.5394879214
 20
-184.702947548
 10
-81.775405949
 20
-194.465240769
  0
LWPOLYLINE
  5
256
330
1F
100
AcDbEntity
  8
main_beam_width
100
AcDbPolyline
 90
10
 70
0
43
0.0
 10
-18.6655137955
 20
-131.559393001
 10
-28.4418060077
 20
-128.786638421
 10
-38.2180982199
 20
-126.01388384
 10
-47.9943904321
 20
-123.24112926
 10
-57.7706826445
 20
-120.46837468
 10
-67.5469748568
 20
-117.6956201
 10
-77.3232670693
 20
-114.92286552
 10
-87.0995592818
 20
-112.15011094
 10
-96.8758514943
 20
-109.377356361
 10
-106.652143707
 20
-106.604601782
  0
LWPOLYLINE
  5
257
330
1F
100
AcDbEntity
  8
main_beam_width
100
AcDbPolyline
 90
10
 70
0
43
0.0
 10
195.094404699
 20
81.5094054496
 10
185.267056981
 20
84.2973309582
 10
175.439709262
 20
87.0852564671
 10
165.612361544
 20
89.8731819761
 10
155.785013826
 20
92.6611074853
 10
145.957666107
 20
95.4490329947
 10
136.130318389
 20
98.2369585043
 10
126.302970671
 20
101.024884014
 10
116.475622953
 20
103.812809524
 10
106.648275235
 20
106.600735034
  0
LWPOLYLINE
  5
258
330
1F
100
AcDbEntity
  8
main_beam_width
100
AcDbPolyline
 90
10
 70
0
43
0.0
 10
53113.9739365
 20
-110.998116682
 10
47210.3468521
 20
-113.282046502
 10
41306.7197677
 20
-115.566266187
 10
35403.0926835
 20
-117.850772891
 10
29499.4655993
 20
-120.135563801
 10
23595.8385152
 20
-122.420636139
 10
17692.2114313
 20
-124.705987162
 10
11788.5843474
 20
-126.991614159
 10
5884.95726359
 20
-129.277514452
 10
-18.6698201118
 20
-131.563685395
  0
LWPOLYLINE
  5
259
330
1F
100
AcDbEntity
  8
main_beam_width
100
AcDbPolyline
 90
10
 70
0
43
0.0
 10
53114.1252684
 20
95.8424259942
 10
47234.2324722
 20
94.2482668828
 10
41354.3396759
 20
92.6543953227
 10
35474.4468795
 20
91.0608085006
 10
29594.554083
 20
89.4675036379
 10
23714.6612864
 20
87.8744779895
 10
17834.7684897
 20
86.2817288436
 10
11954.8756929
 20
84.6892535215
 10
6074.98289607
 20
83.0970493765
 10
195.090099123
 20
81.5051137943
  0
LWPOLYLINE
  5
25a
330
1F
100
AcDbEntity
  8
main_beam_width
100
AcDbPolyline
 90
10
 70
0
43
0.0
 10
131.65691145
 20
18.2770157736
 10
134.252454759
 20
-1727.62648149
 10
136.848021209
 20
-3473.52997873
 10
139.443610734
 20
-5219.43347593
 10
142.039223269
 20
-6965.3369731
 10
144.634858749
 20
-8711.24047024
 10
147.230517108
 20
-10457.1439673
 10
149.826198282
 20
-12203.0474644
 10
152.421902206
 20
-13948.9509615
 10
155.017628815
 20
-15694.8544585
  0
LWPOLYLINE
  5
25b
330
1F
100
AcDbEntity
  8
main_beam_width
100
AcDbPolyline
 90
10
 70
0
43
0.0
 10
-81.7796352521
 20
-194.469456398
 10
-79.4196509298
 20
-1916.48181956
 10
-77.0596891126
 20
-3638.49418275
 10
-74.6997497373
 20
-5360.50654597
 10
-72.3398327412
 20
-7082.51890923
 10
-69.9799380616
 20
-8804.53127251
 10
-67.6200656363
 20
-10526.5436358
 10
-65.2602154031
 20
-12248.5559992
 10
-62.9003873
 20
-13970.5683626
 10
-60.5405812654
 20
-15692.580726
  0
LWPOLYLINE
  5
25c
330
1F
100
AcDbEntity
  8
main_beam_width
100
AcDbPolyline
 90
100
 70
0
43
0.0
 10
-60.5441752777
 20
-15692.5806725
 10
-57.0518061981
 20
-15580.3837685
 10
-53.5594372145
 20
-15468.1868644
 10
-50.0670683296
 20
-15355.9899603
 10
-46.5746995461
 20
-15243.7930563
 10
-43.0823308668
 20
-15131.5961522
 10
-39.5899622948
 20
-15019.3992481
 10
-36.0975938331
 20
-14907.2023441
 10
-32.6052254849
 20
-14795.00544
 10
-29.1128572534
 20
-14682.8085359
 10
-25.6204891422
 20
-14570.6116318
 10
-22.1281211549
 20
-14458.4147278
 10
-18.6357532951
 20
-14346.2178237
 10
-15.1433855667
 20
-14234.0209196
 10
-11.6510179737
 20
-14121.8240155
 10
-8.15865052044
 20
-14009.6271114
 10
-4.6662832112
 20
-13897.4302073
 10
-1.17391605055
 20
-13785.2333032
 10
2.31845095675
 20
-13673.0363991
 10
5.81081780574
 20
-13560.839495
 10
9.30318449124
 20
-13448.6425909
 10
12.7955510079
 20
-13336.4456868
 10
16.2879173499
 20
-13224.2487827
 10
19.7802835116
 20
-13112.0518785
 10
23.2726494866
 20
-12999.8549744
 10
26.7650152685
 20
-12887.6580703
 10
30.2573808507
 20
-12775.4611661
 10
33.7497462259
 20
-12663.264262
 10
37.2421113869
 20
-12551.0673579
 10
40.7344763258
 20
-12438.8704537
 10
44.2268410344
 20
-12326.6735496
 10
47.7192055043
 20
-12214.4766454
 10
51.2115697264
 20
-12102.2797412
 10
54.7039336913
 20
-11990.0828371
 10
58.1962973891
 20
-11877.8859329
 10
61.6886608094
 20
-11765.6890287
 10
65.181023941
 20
-11653.4921245
 10
68.6733867726
 20
-11541.2952203
 10
72.1657492918
 20
-11429.0983161
 10
75.6581114857
 20
-11316.9014119
 10
79.1504733408
 20
-11204.7045077
 10
82.6428348427
 20
-11092.5076034
 10
86.1351959762
 20
-10980.3106992
 10
89.6275567253
 20
-10868.113795
 10
93.1199170728
 20
-10755.9168907
 10
96.6122770008
 20
-10643.7199864
 10
100.10463649
 20
-10531.5230822
 10
103.59699552
 20
-10419.3261779
 10
107.08935407
 20
-10307.1292736
 10
110.581712116
 20
-10194.9323693
 10
114.074069634
 20
-10082.735465
 10
117.566426598
 20
-9970.53856064
 10
121.05878298
 20
-9858.3416563
 10
124.55113875
 20
-9746.14475194
 10
128.043493877
 20
-9633.94784757
 10
131.535848326
 20
-9521.75094319
 10
135.028202061
 20
-9409.55403878
 10
138.520555043
 20
-9297.35713437
 10
142.01290723
 20
-9185.16022993
 10
145.505258577
 20
-9072.96332547
 10
148.997609035
 20
-8960.766421
 10
152.48995855
 20
-8848.5695165
 10
155.982307068
 20
-8736.37261198
 10
159.474654526
 20
-8624.17570743
 10
162.967000857
 20
-8511.97880287
 10
166.459345989
 20
-8399.78189827
 10
169.951689844
 20
-8287.58499364
 10
173.444032336
 20
-8175.38808899
 10
176.936373372
 20
-8063.1911843
 10
180.428712849
 20
-7950.99427958
 10
183.921050655
 20
-7838.79737482
 10
187.413386667
 20
-7726.60047001
 10
190.90572075
 20
-7614.40356517
 10
194.398052755
 20
-7502.20666028
 10
197.890382515
 20
-7390.00975533
 10
201.382709849
 20
-7277.81285034
 10
204.875034553
 20
-7165.61594528
 10
208.367356398
 20
-7053.41904016
 10
211.859675132
 20
-6941.22213497
 10
215.351990468
 20
-6829.0252297
 10
218.844302087
 20
-6716.82832435
 10
222.336609625
 20
-6604.63141891
 10
225.828912671
 20
-6492.43451336
 10
229.321210756
 20
-6380.23760771
 10
232.813503343
 20
-6268.04070193
 10
236.305789816
 20
-6155.84379601
 10
239.798069463
 20
-6043.64688994
 10
243.290341455
 20
-5931.44998369
 10
246.782604827
 20
-5819.25307726
 10
250.27485844
 20
-5707.0561706
 10
253.767100948
 20
-5594.85926369
 10
257.259330747
 20
-5482.6623565
 10
260.751545905
 20
-5370.46544897
 10
264.24374408
 20
-5258.26854107
 10
267.7359224
 20
-5146.07163271
 10
271.22807731
 20
-5033.87472383
 10
274.720204349
 20
-4921.67781432
 10
278.21229785
 20
-4809.48090406
 10
281.704350495
 20
-4697.28399287
 10
285.196352671
 20
-4585.08708055
  0
LWPOLYLINE
  5
25d
330
1F
100
AcDbEntity
  8
main_beam_width
100
AcDbPolyline
 90
100
 70
0
43
0.0
 10
155.010055512
 20
-15694.8544113
 10
156.573391173
 20
-15582.637607
 10
158.13672693
 20
-15470.4208027
 10
159.700062786
 20
-15358.2039983
 10
161.263398743
 20
-15245.987194
 10
162.826734805
 20
-15133.7703897
 10
164.390070973
 20
-15021.5535854
 10
165.953407253
 20
-14909.336781
 10
167.516743645
 20
-14797.1199767
 10
169.080080155
 20
-14684.9031724
 10
170.643416784
 20
-14572.6863681
 10
172.206753538
 20
-14460.4695638
 10
173.770090419
 20
-14348.2527595
 10
175.333427432
 20
-14236.0359552
 10
176.89676458
 20
-14123.8191509
 10
178.460101867
 20
-14011.6023466
 10
180.023439299
 20
-13899.3855423
 10
181.58677688
 20
-13787.168738
 10
183.150114613
 20
-13674.9519337
 10
184.713452506
 20
-13562.7351294
 10
186.276790561
 20
-13450.5183252
 10
187.840128786
 20
-13338.3015209
 10
189.403467185
 20
-13226.0847166
 10
190.966805765
 20
-13113.8679123
 10
192.530144531
 20
-13001.6511081
 10
194.09348349
 20
-12889.4343038
 10
195.65682265
 20
-12777.2174996
 10
197.220162016
 20
-12665.0006953
 10
198.783501596
 20
-12552.7838911
 10
200.346841399
 20
-12440.5670868
 10
201.910181432
 20
-12328.3502826
 10
203.473521703
 20
-12216.1334784
 10
205.036862223
 20
-12103.9166741
 10
206.600203
 20
-11991.6998699
 10
208.163544044
 20
-11879.4830657
 10
209.726885365
 20
-11767.2662615
 10
211.290226976
 20
-11655.0494573
 10
212.853568886
 20
-11542.8326531
 10
214.416911109
 20
-11430.6158489
 10
215.980253657
 20
-11318.3990447
 10
217.543596544
 20
-11206.1822406
 10
219.106939784
 20
-11093.9654364
 10
220.670283393
 20
-10981.7486323
 10
222.233627386
 20
-10869.5318281
 10
223.796971781
 20
-10757.315024
 10
225.360316595
 20
-10645.0982198
 10
226.923661849
 20
-10532.8814157
 10
228.487007561
 20
-10420.6646116
 10
230.050353754
 20
-10308.4478075
 10
231.613700451
 20
-10196.2310034
 10
233.177047676
 20
-10084.0141994
 10
234.740395455
 20
-9971.79739531
 10
236.303743816
 20
-9859.58059126
 10
237.867092789
 20
-9747.36378723
 10
239.430442406
 20
-9635.14698321
 10
240.9937927
 20
-9522.9301792
 10
242.557143709
 20
-9410.71337522
 10
244.12049547
 20
-9298.49657125
 10
245.683848027
 20
-9186.27976729
 10
247.247201425
 20
-9074.06296336
 10
248.810555711
 20
-8961.84615944
 10
250.37391094
 20
-8849.62935555
 10
251.937267167
 20
-8737.41255168
 10
253.500624454
 20
-8625.19574783
 10
255.063982868
 20
-8512.97894401
 10
256.627342481
 20
-8400.76214022
 10
258.190703371
 20
-8288.54533645
 10
259.754065625
 20
-8176.32853272
 10
261.317429335
 20
-8064.11172902
 10
262.880794605
 20
-7951.89492535
 10
264.444161545
 20
-7839.67812172
 10
266.00753028
 20
-7727.46131813
 10
267.570900944
 20
-7615.24451459
 10
269.134273687
 20
-7503.02771109
 10
270.697648674
 20
-7390.81090764
 10
272.261026088
 20
-7278.59410425
 10
273.824406134
 20
-7166.37730092
 10
275.387789038
 20
-7054.16049765
 10
276.951175054
 20
-6941.94369445
 10
278.514564468
 20
-6829.72689133
 10
280.0779576
 20
-6717.51008829
 10
281.641354814
 20
-6605.29328534
 10
283.20475652
 20
-6493.07648249
 10
284.768163189
 20
-6380.85967976
 10
286.331575356
 20
-6268.64287715
 10
287.894993638
 20
-6156.42607468
 10
289.458418748
 20
-6044.20927236
 10
291.021851513
 20
-5931.99247021
 10
292.5852929
 20
-5819.77566826
 10
294.148744048
 20
-5707.55886653
 10
295.712206301
 20
-5595.34206505
 10
297.275681266
 20
-5483.12526385
 10
298.839170874
 20
-5370.90846299
 10
300.402677468
 20
-5258.6916625
 10
301.966203919
 20
-5146.47486247
 10
303.529753783
 20
-5034.25806296
 10
305.093331522
 20
-4922.04126408
 10
306.656942803
 20
-4809.82446596
 10
308.220594945
 20
-4697.60766875
 10
309.784297561
 20
-4585.39087269
  0
LWPOLYLINE
  5
25e
330
1F
100
AcDbEntity
  8
main_beam_width
100
AcDbPolyline
 90
10
 70
0
43
0.0
 10
309.785038536
 20
-4585.39087879
 10
305.626701596
 20
-6223.28836261
 10
301.483899406
 20
-7861.18588037
 10
297.359110224
 20
-9499.0834375
 10
293.255260813
 20
-11136.9810404
 10
289.175794036
 20
-12774.8786965
 10
285.124730954
 20
-14412.7764148
 10
281.106713982
 20
-16050.6742052
 10
277.127010047
 20
-17688.5720793
 10
273.191444279
 20
-19326.4700499
  0
LWPOLYLINE
  5
25f
330
1F
100
AcDbEntity
  8
main_beam_width
100
AcDbPolyline
 90
10
 70
0
43
0.0
 10
285.196640861
 20
-4585.0870853
 10
282.197095593
 20
-6223.01488629
 10
279.182015356
 20
-7860.94265334
 10
276.148921818
 20
-9498.87038102
 10
273.09488812
 20
-11136.798063
 10
270.016471275
 20
-12774.7256916
 10
266.909650064
 20
-14412.6532582
 10
263.769781871
 20
-16050.5807526
 10
260.591599529
 20
-17688.5081632
 10
257.369277623
 20
-19326.4354774
  0
LWPOLYLINE
  5
260
330
1F
100
AcDbEntity
  8
main_beam_width
100
AcDbPolyline
 90
10
 70
0
43
0.0
 10
-106.656405335
 20
-106.60886151
 10
-1846.17611136
 20
-105.36218771
 10
-3585.6958174
 20
-104.115536994
 10
-5325.21552345
 20
-102.868909296
 10
-7064.73522953
 20
-101.622304551
 10
-8804.25493562
 20
-100.375722694
 10
-10543.7746417
 20
-99.129163659
 10
-12283.2943479
 20
-97.8826273827
 10
-14022.814054
 20
-96.6361138004
 10
-15762.3337602
 20
-95.3896228478
  0
LWPOLYLINE
  5
261
330
1F
100
AcDbEntity
  8
main_beam_width
100
AcDbPolyline
 90
10
 70
0
43
0.0
 10
106.644014336
 20
106.596476034
 10
-1656.84354024
 20
108.065535599
 10
-3420.33109479
 20
109.534618895
 10
-5183.81864932
 20
111.003725855
 10
-6947.30620384
 20
112.472856409
 10
-8710.79375834
 20
113.942010491
 10
-10474.2813128
 20
115.411188032
 10
-12237.7688673
 20
116.880388966
 10
-14001.2564217
 20
118.349613225
 10
-15764.7439762
 20
119.818860743
  0
LWPOLYLINE
  5
262
330
1F
100
AcDbEntity
  8
main_beam_width
100
AcDbPolyline
 90
100
 70
0
43
0.0
 10
-15764.7439242
 20
119.811316349
 10
-15652.987088
 20
121.442341027
 10
-15541.2302517
 20
123.073365802
 10
-15429.4734154
 20
124.704390675
 10
-15317.7165792
 20
126.335415649
 10
-15205.9597429
 20
127.966440727
 10
-15094.2029066
 20
129.597465912
 10
-14982.4460704
 20
131.228491206
 10
-14870.6892341
 20
132.859516614
 10
-14758.9323979
 20
134.490542138
 10
-14647.1755616
 20
136.121567781
 10
-14535.4187254
 20
137.752593548
 10
-14423.6618891
 20
139.383619442
 10
-14311.9050529
 20
141.014645467
 10
-14200.1482167
 20
142.645671626
 10
-14088.3913804
 20
144.276697925
 10
-13976.6345442
 20
145.907724367
 10
-13864.877708
 20
147.538750956
 10
-13753.1208717
 20
149.169777699
 10
-13641.3640355
 20
150.800804598
 10
-13529.6071993
 20
152.43183166
 10
-13417.8503631
 20
154.06285889
 10
-13306.0935269
 20
155.693886294
 10
-13194.3366907
 20
157.324913877
 10
-13082.5798545
 20
158.955941645
 10
-12970.8230183
 20
160.586969605
 10
-12859.0661821
 20
162.217997764
 10
-12747.3093459
 20
163.849026128
 10
-12635.5525097
 20
165.480054705
 10
-12523.7956735
 20
167.111083502
 10
-12412.0388374
 20
168.742112528
 10
-12300.2820012
 20
170.373141791
 10
-12188.525165
 20
172.004171299
 10
-12076.7683289
 20
173.635201063
 10
-11965.0114927
 20
175.266231092
 10
-11853.2546566
 20
176.897261395
 10
-11741.4978204
 20
178.528291985
 10
-11629.7409843
 20
180.159322872
 10
-11517.9841482
 20
181.790354069
 10
-11406.2273121
 20
183.421385588
 10
-11294.470476
 20
185.052417442
 10
-11182.7136399
 20
186.683449647
 10
-11070.9568038
 20
188.314482215
 10
-10959.1999677
 20
189.945515164
 10
-10847.4431316
 20
191.576548511
 10
-10735.6862956
 20
193.207582272
 10
-10623.9294595
 20
194.838616467
 10
-10512.1726235
 20
196.469651115
 10
-10400.4157874
 20
198.100686239
 10
-10288.6589514
 20
199.731721859
 10
-10176.9021154
 20
201.362758001
 10
-10065.1452794
 20
202.99379469
 10
-9953.38844344
 20
204.624831953
 10
-9841.63160747
 20
206.25586982
 10
-9729.87477152
 20
207.88690832
 10
-9618.11793558
 20
209.517947489
 10
-9506.36109966
 20
211.14898736
 10
-9394.60426376
 20
212.780027974
 10
-9282.84742787
 20
214.411069369
 10
-9171.09059201
 20
216.042111591
 10
-9059.33375616
 20
217.673154688
 10
-8947.57692034
 20
219.304198709
 10
-8835.82008453
 20
220.935243712
 10
-8724.06324876
 20
222.566289754
 10
-8612.306413
 20
224.197336902
 10
-8500.54957728
 20
225.828385225
 10
-8388.79274158
 20
227.4594348
 10
-8277.03590592
 20
229.09048571
 10
-8165.27907029
 20
230.721538045
 10
-8053.52223469
 20
232.352591905
 10
-7941.76539913
 20
233.983647397
 10
-7830.00856361
 20
235.614704641
 10
-7718.25172814
 20
237.245763767
 10
-7606.49489271
 20
238.876824919
 10
-7494.73805733
 20
240.507888257
 10
-7382.98122201
 20
242.138953956
 10
-7271.22438675
 20
243.770022213
 10
-7159.46755155
 20
245.401093244
 10
-7047.71071642
 20
247.032167295
 10
-6935.95388137
 20
248.663244636
 10
-6824.1970464
 20
250.294325576
 10
-6712.44021152
 20
251.925410459
 10
-6600.68337675
 20
253.556499677
 10
-6488.92654208
 20
255.187593676
 10
-6377.16970754
 20
256.818692964
 10
-6265.41287313
 20
258.449798125
 10
-6153.65603887
 20
260.08090983
 10
-6041.89920479
 20
261.712028858
 10
-5930.14237089
 20
263.343156117
 10
-5818.38553721
 20
264.974292671
 10
-5706.62870378
 20
266.605439775
 10
-5594.87187062
 20
268.236598922
 10
-5483.11503778
 20
269.8677719
 10
-5371.35820532
 20
271.498960867
 10
-5259.60137329
 20
273.130168459
 10
-5147.84454176
 20
274.761397923
 10
-5036.08771083
 20
276.392653304
 10
-4924.33088063
 20
278.023939717
 10
-4812.57405129
 20
279.655263709
 10
-4700.81722302
 20
281.286633815
  0
LWPOLYLINE
  5
263
330
1F
100
AcDbEntity
  8
main_beam_width
100
AcDbPolyline
 90
100
 70
0
43
0.0
 10
-15762.3337045
 20
-95.3932073806
 10
-15650.5978876
 20
-91.8441979245
 10
-15538.8620707
 20
-88.2951885641
 10
-15427.1262538
 20
-84.746179302
 10
-15315.3904369
 20
-81.1971701409
 10
-15203.65462
 20
-77.6481610837
 10
-15091.918803
 20
-74.0991521333
 10
-14980.1829861
 20
-70.5501432928
 10
-14868.4471692
 20
-67.0011345653
 10
-14756.7113522
 20
-63.452125954
 10
-14644.9755353
 20
-59.9031174625
 10
-14533.2397184
 20
-56.3541090943
 10
-14421.5039014
 20
-52.805100853
 10
-14309.7680845
 20
-49.2560927424
 10
-14198.0322675
 20
-45.7070847667
 10
-14086.2964506
 20
-42.1580769299
 10
-13974.5606336
 20
-38.6090692364
 10
-13862.8248167
 20
-35.0600616907
 10
-13751.0889997
 20
-31.5110542975
 10
-13639.3531828
 20
-27.9620470616
 10
-13527.6173658
 20
-24.4130399883
 10
-13415.8815488
 20
-20.8640330829
 10
-13304.1457318
 20
-17.315026351
 10
-13192.4099149
 20
-13.7660197983
 10
-13080.6740979
 20
-10.217013431
 10
-12968.9382809
 20
-6.6680072555
 10
-12857.2024639
 20
-3.11900127842
 10
-12745.4666469
 20
0.430004493224
 10
-12633.7308299
 20
3.97901005213
 10
-12521.9950129
 20
7.52801539061
 10
-12410.2591959
 20
11.0770205006
 10
-12298.5233789
 20
14.6260253738
 10
-12186.7875618
 20
18.1750300011
 10
-12075.0517448
 20
21.7240343734
 10
-11963.3159278
 20
25.2730384809
 10
-11851.5801107
 20
28.8220423131
 10
-11739.8442937
 20
32.3710458595
 10
-11628.1084766
 20
35.9200491084
 10
-11516.3726596
 20
39.4690520479
 10
-11404.6368425
 20
43.0180546653
 10
-11292.9010254
 20
46.5670569473
 10
-11181.1652083
 20
50.1160588796
 10
-11069.4293912
 20
53.6650604474
 10
-10957.6935741
 20
57.2140616349
 10
-10845.957757
 20
60.7630624252
 10
-10734.2219399
 20
64.3120628008
 10
-10622.4861228
 20
67.8610627428
 10
-10510.7503056
 20
71.4100622312
 10
-10399.0144885
 20
74.9590612448
 10
-10287.2786713
 20
78.5080597612
 10
-10175.5428541
 20
82.0570577564
 10
-10063.8070369
 20
85.6060552047
 10
-9952.07121972
 20
89.155052079
 10
-9840.3354025
 20
92.7040483501
 10
-9728.59958527
 20
96.253043987
 10
-9616.86376802
 20
99.8020389564
 10
-9505.12795076
 20
103.351033223
 10
-9393.39213347
 20
106.900026748
 10
-9281.65631617
 20
110.44901949
 10
-9169.92049886
 20
113.998011406
 10
-9058.18468152
 20
117.547002448
 10
-8946.44886416
 20
121.095992565
 10
-8834.71304677
 20
124.644981702
 10
-8722.97722937
 20
128.193969798
 10
-8611.24141193
 20
131.74295679
 10
-8499.50559447
 20
135.291942606
 10
-8387.76977698
 20
138.84092717
 10
-8276.03395946
 20
142.3899104
 10
-8164.29814191
 20
145.938892205
 10
-8052.56232432
 20
149.487872486
 10
-7940.8265067
 20
153.036851135
 10
-7829.09068903
 20
156.585828032
 10
-7717.35487132
 20
160.134803047
 10
-7605.61905356
 20
163.683776037
 10
-7493.88323575
 20
167.232746841
 10
-7382.14741789
 20
170.781715284
 10
-7270.41159997
 20
174.330681171
 10
-7158.67578198
 20
177.879644283
 10
-7046.93996392
 20
181.428604376
 10
-6935.20414579
 20
184.977561179
 10
-6823.46832758
 20
188.526514385
 10
-6711.73250927
 20
192.075463648
 10
-6599.99669086
 20
195.624408576
 10
-6488.26087234
 20
199.173348724
 10
-6376.5250537
 20
202.722283584
 10
-6264.78923492
 20
206.271212572
 10
-6153.053416
 20
209.820135017
 10
-6041.3175969
 20
213.36905014
 10
-5929.58177761
 20
216.917957034
 10
-5817.8459581
 20
220.466854634
 10
-5706.11013835
 20
224.015741685
 10
-5594.37431832
 20
227.564616695
 10
-5482.63849798
 20
231.113477877
 10
-5370.90267726
 20
234.662323071
 10
-5259.16685611
 20
238.211149643
 10
-5147.43103445
 20
241.759954346
 10
-5035.69521219
 20
245.308733135
 10
-4923.95938921
 20
248.857480897
 10
-4812.22356536
 20
252.406191083
 10
-4700.48774045
 20
255.954855161
  0
LWPOLYLINE
  5
264
330
1F
100
AcDbEntity
  8
main_beam_width
100
AcDbPolyline
 90
10
 70
0
43
0.0
 10
-4700.48774554
 20
255.955152858
 10
-6340.66528731
 20
251.852040424
 10
-7980.84278909
 20
247.734841988
 10
-9621.02024503
 20
243.601496862
 10
-11261.1976483
 20
239.449604093
 10
-12901.374991
 20
235.276375885
 10
-14541.5522641
 20
231.078594512
 10
-16181.7294569
 20
226.852580413
 10
-17821.9065579
 20
222.594183232
 10
-19462.0835539
 20
218.298812143
  0
LWPOLYLINE
  5
265
330
1F
100
AcDbEntity
  8
main_beam_width
100
AcDbPolyline
 90
10
 70
0
43
0.0
 10
-4700.8172298
 20
281.287396564
 10
-6340.9630132
 20
276.078425138
 10
-7981.10883659
 20
270.883539488
 10
-9621.25470581
 20
265.704800235
 10
-11261.4006277
 20
260.544608246
 10
-12901.5466101
 20
255.405751213
 10
-14541.6926623
 20
250.291446727
 10
-16181.8387945
 20
245.205374186
 10
-17821.9850188
 20
240.151683747
 10
-19462.1313479
 20
235.134966009
  0
LWPOLYLINE
  5
266
330
1F
100
AcDbEntity
  8
main_beam_width
100
AcDbPolyline
 90
10
 70
0
43
0.0
 10
87.0228342833
 20
49928.9119184
 10
87.0232780045
 20
49917.7924638
 10
87.0237217263
 20
49906.6730092
 10
87.0241654485
 20
49895.5535546
 10
87.0246091713
 20
49884.4340999
 10
87.0250528945
 20
49873.3146453
 10
87.0254966183
 20
49862.1951907
 10
87.0259403425
 20
49851.0757361
 10
87.0263840672
 20
49839.9562815
 10
87.0268277924
 20
49828.8368269
  0
LWPOLYLINE
  5
267
330
1F
100
AcDbEntity
  8
main_beam_width
100
AcDbPolyline
 90
10
 70
0
43
0.0
 10
-119.809727414
 20
49928.9119184
 10
-119.810170464
 20
49917.8092784
 10
-119.810613515
 20
49906.7066385
 10
-119.811056566
 20
49895.6039985
 10
-119.811499618
 20
49884.5013586
 10
-119.81194267
 20
49873.3987186
 10
-119.812385723
 20
49862.2960787
 10
-119.812828776
 20
49851.1934387
 10
-119.81327183
 20
49840.0907987
 10
-119.813714884
 20
49828.9881588
  0
LWPOLYLINE
  5
268
330
1F
100
AcDbEntity
  8
main_beam_width
100
AcDbPolyline
 90
18
 70
0
43
0.0
 10
32.8512813328
 20
1519109.5091
 10
33.1409731956
 20
1432687.12103
 10
34.0000578466
 20
1346264.73296
 10
35.4002100286
 20
1259842.34489
 10
37.2991178211
 20
1173419.95682
 10
39.6461029333
 20
1086997.56875
 10
42.3875178381
 20
1000575.18068
 10
45.4709492934
 20
914152.792615
 10
48.8479222455
 20
827730.404545
 10
52.4752688593
 20
741308.016476
 10
56.3155264348
 20
654885.628406
 10
60.33673378
 20
568463.240336
 10
64.5119143664
 20
482040.852267
 10
68.8184382263
 20
395618.464197
 10
73.2373752683
 20
309196.076127
 10
77.7528978458
 20
222773.688058
 10
82.3517565584
 20
136351.299988
 10
87.0228342831
 20
49928.9119184
  0
LWPOLYLINE
  5
269
330
1F
100
AcDbEntity
  8
main_beam_width
100
AcDbPolyline
 90
18
 70
0
43
0.0
 10
-65.6381744633
 20
1519109.5091
 10
-65.9278663262
 20
1432687.12103
 10
-66.7869509772
 20
1346264.73296
 10
-68.1871031592
 20
1259842.34489
 10
-70.0860109518
 20
1173419.95682
 10
-72.4329960639
 20
1086997.56875
 10
-75.1744109688
 20
1000575.18068
 10
-78.2578424241
 20
914152.792615
 10
-81.6348153763
 20
827730.404545
 10
-85.2621619901
 20
741308.016476
 10
-89.1024195657
 20
654885.628406
 10
-93.1236269109
 20
568463.240336
 10
-97.2988074973
 20
482040.852267
 10
-101.605331357
 20
395618.464197
 10
-106.024268399
 20
309196.076127
 10
-110.539790977
 20
222773.688058
 10
-115.138649689
 20
136351.299988
 10
-119.809727414
 20
49928.9119184
  0
LWPOLYLINE
  5
26a
330
1F
100
AcDbEntity
  8
main_beam_width
100
AcDbPolyline
 90
23
 70
0
43
0.0
 10
-119.809727414
 20
49928.9119184
 10
-125.119494644
 20
183490.784364
 10
-130.558492704
 20
317052.656809
 10
-136.109108997
 20
450614.529254
 10
-141.756518263
 20
584176.401699
 10
-147.488211916
 20
717738.274144
 10
-153.293603985
 20
851300.146589
 10
-159.163704475
 20
984862.019035
 10
-165.090850135
 20
1118423.89148
 10
-171.068483192
 20
1251985.76392
 10
-177.09096965
 20
1385547.63637
 10
-183.153449977
 20
1519109.50882
 10
-189.251716234
 20
1652671.38126
 10
-195.382110706
 20
1786233.25371
 10
-201.541442047
 20
1919795.12615
 10
-207.726915708
 20
2053356.9986
 10
-213.936075989
 20
2186918.87104
 10
-220.166757644
 20
2320480.74349
 10
-226.417045284
 20
2454042.61593
 10
-232.685239225
 20
2587604.48838
 10
-238.969826642
 20
2721166.36082
 10
-245.269457118
 20
2854728.23327
 10
-251.582921857
 20
2988290.10571
  0
LWPOLYLINE
  5
26b
330
1F
100
AcDbEntity
  8
main_beam_width
100
AcDbPolyline
 90
23
 70
0
43
0.0
 10
87.0228342833
 20
49928.9119184
 10
92.3326015136
 20
183490.784364
 10
97.7715995731
 20
317052.656809
 10
103.322215866
 20
450614.529254
 10
108.969625132
 20
584176.401699
 10
114.701318785
 20
717738.274144
 10
120.506710855
 20
851300.146589
 10
126.376811345
 20
984862.019035
 10
132.303957004
 20
1118423.89148
 10
138.281590062
 20
1251985.76392
 10
144.304076519
 20
1385547.63637
 10
150.366556847
 20
1519109.50882
 10
156.464823104
 20
1652671.38126
 10
162.595217575
 20
1786233.25371
 10
168.754548917
 20
1919795.12615
 10
174.940022577
 20
2053356.9986
 10
181.149182858
 20
2186918.87104
 10
187.379864513
 20
2320480.74349
 10
193.630152153
 20
2454042.61593
 10
199.898346095
 20
2587604.48838
 10
206.182933512
 20
2721166.36082
 10
212.482563988
 20
2854728.23327
 10
218.796028727
 20
2988290.10571
  0
LWPOLYLINE
  5
26c
330
1F
100
AcDbEntity
  8
main_beam_width
100
AcDbPolyline
 90
10
 70
0
43
0.0
 10
106.27608883
 20
106.228714537
 10
109.055270918
 20
96.4155265168
 10
111.834453007
 20
86.6023384964
 10
114.613635096
 20
76.789150476
 10
117.392817185
 20
66.9759624557
 10
120.171999275
 20
57.1627744354
 10
122.951181364
 20
47.3495864152
 10
125.730363454
 20
37.536398395
 10
128.509545544
 20
27.7232103749
 10
131.288727634
 20
17.9100223549
  0
LWPOLYLINE
  5
26d
330
1F
100
AcDbEntity
  8
main_beam_width
100
AcDbPolyline
 90
10
 70
0
43
0.0
 10
-106.279957272
 20
-106.232581255
 10
-103.515850191
 20
-115.99496472
 10
-100.75174311
 20
-125.757348184
 10
-97.987636029
 20
-135.519731648
 10
-95.2235289482
 20
-145.282115113
 10
-92.4594218677
 20
-155.044498577
 10
-89.6953147874
 20
-164.806882042
 10
-86.9312077073
 20
-174.569265507
 10
-84.1671006273
 20
-184.331648971
 10
-81.4029935476
 20
-194.094032436
  0
LWPOLYLINE
  5
26e
330
1F
100
AcDbEntity
  8
main_beam_width
100
AcDbPolyline
 90
10
 70
0
43
0.0
 10
87.0268311185
 20
49828.8368269
 10
89.1641705188
 20
44304.1021197
 10
91.3017639325
 20
38779.3674125
 10
93.4396090237
 20
33254.6327055
 10
95.577703483
 20
27729.8979985
 10
97.7160450274
 20
22205.1632916
 10
99.8546314001
 20
16680.4285848
 10
101.99346037
 20
11155.6938781
 10
104.132529731
 20
5630.95917147
 10
106.271837303
 20
106.224464905
  0
LWPOLYLINE
  5
26f
330
1F
100
AcDbEntity
  8
main_beam_width
100
AcDbPolyline
 90
10
 70
0
43
0.0
 10
-119.813711558
 20
49828.9881588
 10
-118.30943054
 20
44280.6298268
 10
-116.805405702
 20
38732.2714948
 10
-115.301634679
 20
33183.9131627
 10
-113.798115131
 20
27635.5548305
 10
-112.294844747
 20
22087.1964983
 10
-110.791821241
 20
16538.8381659
 10
-109.289042354
 20
10990.4798335
 10
-107.786505852
 20
5442.12150097
 10
-106.284209528
 20
-106.236831615
  0
LWPOLYLINE
  5
270
330
1F
100
AcDbEntity
  8
main_beam_width
100
AcDbPolyline
 90
10
 70
0
43
0.0
 10
-106.284209528
 20
-106.236831615
 10
-1845.84591026
 20
-104.990258901
 10
-3585.407611
 20
-103.743709515
 10
-5324.96931176
 20
-102.49718339
 10
-7064.53101255
 20
-101.25068046
 10
-8804.09271335
 20
-100.004200659
 10
-10543.6544142
 20
-98.757743921
 10
-12283.216115
 20
-97.5113101804
 10
-14022.7778159
 20
-96.2648993718
 10
-15762.3395167
 20
-95.0185114302
  0
LWPOLYLINE
  5
271
330
1F
100
AcDbEntity
  8
main_beam_width
100
AcDbPolyline
 90
10
 70
0
43
0.0
 10
106.271837303
 20
106.224464905
 10
-1657.17408025
 20
107.693622749
 10
-3420.61999779
 20
109.162804573
 10
-5184.0659153
 20
110.632010308
 10
-6947.5118328
 20
112.101239884
 10
-8710.95775028
 20
113.570493234
 10
-10474.4036677
 20
115.039770288
 10
-12237.8495852
 20
116.509070977
 10
-14001.2955026
 20
117.978395235
 10
-15764.74142
 20
119.447742993
  0
LWPOLYLINE
  5
272
330
1F
100
AcDbEntity
  8
main_beam_width
100
AcDbPolyline
 90
100
 70
0
43
0.0
 10
-15764.7413684
 20
119.440257455
 10
-15652.9845543
 20
121.074620173
 10
-15541.2277402
 20
122.708982987
 10
-15429.4709261
 20
124.343345901
 10
-15317.714112
 20
125.977708917
 10
-15205.9572979
 20
127.612072038
 10
-15094.2004838
 20
129.246435266
 10
-14982.4436697
 20
130.880798606
 10
-14870.6868556
 20
132.51516206
 10
-14758.9300415
 20
134.149525632
 10
-14647.1732274
 20
135.783889324
 10
-14535.4164133
 20
137.418253141
 10
-14423.6595993
 20
139.052617087
 10
-14311.9027852
 20
140.686981164
 10
-14200.1459711
 20
142.321345378
 10
-14088.389157
 20
143.955709732
 10
-13976.632343
 20
145.590074231
 10
-13864.8755289
 20
147.224438879
 10
-13753.1187148
 20
148.858803682
 10
-13641.3619008
 20
150.493168643
 10
-13529.6050867
 20
152.127533769
 10
-13417.8482727
 20
153.761899065
 10
-13306.0914586
 20
155.396264535
 10
-13194.3346446
 20
157.030630187
 10
-13082.5778306
 20
158.664996026
 10
-12970.8210165
 20
160.299362059
 10
-12859.0642025
 20
161.933728293
 10
-12747.3073885
 20
163.568094734
 10
-12635.5505745
 20
165.20246139
 10
-12523.7937604
 20
166.836828269
 10
-12412.0369464
 20
168.471195379
 10
-12300.2801324
 20
170.105562728
 10
-12188.5233184
 20
171.739930326
 10
-12076.7665044
 20
173.374298181
 10
-11965.0096905
 20
175.008666304
 10
-11853.2528765
 20
176.643034705
 10
-11741.4960625
 20
178.277403395
 10
-11629.7392485
 20
179.911772386
 10
-11517.9824346
 20
181.546141689
 10
-11406.2256206
 20
183.180511318
 10
-11294.4688067
 20
184.814881286
 10
-11182.7119928
 20
186.449251607
 10
-11070.9551788
 20
188.083622296
 10
-10959.1983649
 20
189.71799337
 10
-10847.441551
 20
191.352364845
 10
-10735.6847371
 20
192.98673674
 10
-10623.9279232
 20
194.621109072
 10
-10512.1711094
 20
196.255481863
 10
-10400.4142955
 20
197.889855133
 10
-10288.6574816
 20
199.524228906
 10
-10176.9006678
 20
201.158603206
 10
-10065.143854
 20
202.792978058
 10
-9953.38704016
 20
204.427353491
 10
-9841.63022636
 20
206.061729533
 10
-9729.87341257
 20
207.696106216
 10
-9618.1165988
 20
209.330483573
 10
-9506.35978505
 20
210.964861641
 10
-9394.60297131
 20
212.599240458
 10
-9282.8461576
 20
214.233620065
 10
-9171.0893439
 20
215.868000508
 10
-9059.33253022
 20
217.502381834
 10
-8947.57571656
 20
219.136764095
 10
-8835.81890293
 20
220.771147346
 10
-8724.06208932
 20
222.405531649
 10
-8612.30527574
 20
224.039917068
 10
-8500.54846218
 20
225.674303674
 10
-8388.79164865
 20
227.308691546
 10
-8277.03483516
 20
228.943080765
 10
-8165.2780217
 20
230.577471425
 10
-8053.52120827
 20
232.211863625
 10
-7941.76439488
 20
233.846257474
 10
-7830.00758154
 20
235.480653093
 10
-7718.25076823
 20
237.115050613
 10
-7606.49395498
 20
238.74945018
 10
-7494.73714177
 20
240.383851955
 10
-7382.98032863
 20
242.018256116
 10
-7271.22351554
 20
243.65266286
 10
-7159.46670251
 20
245.287072408
 10
-7047.70988956
 20
246.921485005
 10
-6935.95307668
 20
248.555900926
 10
-6824.19626389
 20
250.190320483
 10
-6712.43945119
 20
251.824744023
 10
-6600.68263859
 20
253.459171942
 10
-6488.92582611
 20
255.093604691
 10
-6377.16901374
 20
256.728042782
 10
-6265.41220152
 20
258.362486805
 10
-6153.65538945
 20
259.996937439
 10
-6041.89857755
 20
261.63139547
 10
-5930.14176584
 20
263.265861815
 10
-5818.38495435
 20
264.900337548
 10
-5706.62814311
 20
266.534823937
 10
-5594.87133215
 20
268.16932249
 10
-5483.11452151
 20
269.803835011
 10
-5371.35771125
 20
271.438363682
 10
-5259.60090142
 20
273.072911162
 10
-5147.8440921
 20
274.70748073
 10
-5036.08728339
 20
276.342076472
 10
-4924.33047541
 20
277.97670355
 10
-4812.57366831
 20
279.611368575
 10
-4700.81686229
 20
281.246080162
  0
LWPOLYLINE
  5
273
330
1F
100
AcDbEntity
  8
main_beam_width
100
AcDbPolyline
 90
100
 70
0
43
0.0
 10
-15762.3394614
 20
-95.022078192
 10
-15650.6035934
 20
-91.4764074234
 10
-15538.8677253
 20
-87.9307367516
 10
-15427.1318573
 20
-84.385066179
 10
-15315.3959892
 20
-80.8393957086
 10
-15203.6601212
 20
-77.2937253431
 10
-15091.9242531
 20
-73.7480550856
 10
-14980.1883851
 20
-70.202384939
 10
-14868.452517
 20
-66.6567149066
 10
-14756.716649
 20
-63.1110449917
 10
-14644.9807809
 20
-59.5653751978
 10
-14533.2449128
 20
-56.0197055284
 10
-14421.5090448
 20
-52.4740359873
 10
-14309.7731767
 20
-48.9283665784
 10
-14198.0373086
 20
-45.3826973056
 10
-14086.3014406
 20
-41.8370281732
 10
-13974.5655725
 20
-38.2913591856
 10
-13862.8297044
 20
-34.7456903473
 10
-13751.0938363
 20
-31.2000216631
 10
-13639.3579682
 20
-27.6543531379
 10
-13527.6221001
 20
-24.108684777
 10
-13415.886232
 20
-20.5630165857
 10
-13304.1503639
 20
-17.0173485696
 10
-13192.4144958
 20
-13.4716807347
 10
-13080.6786277
 20
-9.92601308713
 10
-12968.9427596
 20
-6.3803456333
 10
-12857.2068914
 20
-2.83467837996
 10
-12745.4710233
 20
0.710988665805
 10
-12633.7351552
 20
4.25665549662
 10
-12521.9992871
 20
7.80232210473
 10
-12410.2634189
 20
11.347988482
 10
-12298.5275508
 20
14.8936546199
 10
-12186.7916826
 20
18.4393205095
 10
-12075.0558145
 20
21.9849861414
 10
-11963.3199463
 20
25.5306515057
 10
-11851.5840781
 20
29.076316592
 10
-11739.8482099
 20
32.6219813893
 10
-11628.1123418
 20
36.1676458862
 10
-11516.3764736
 20
39.7133100704
 10
-11404.6406054
 20
43.2589739292
 10
-11292.9047372
 20
46.8046374491
 10
-11181.1688689
 20
50.3503006157
 10
-11069.4330007
 20
53.895963414
 10
-10957.6971325
 20
57.441625828
 10
-10845.9612642
 20
60.9872878409
 10
-10734.225396
 20
64.5329494346
 10
-10622.4895277
 20
68.0786105902
 10
-10510.7536594
 20
71.6242712876
 10
-10399.0177912
 20
75.1699315053
 10
-10287.2819229
 20
78.7155912207
 10
-10175.5460546
 20
82.2612504093
 10
-10063.8101862
 20
85.8069090455
 10
-9952.0743179
 20
89.3525671018
 10
-9840.33844955
 20
92.8982245486
 10
-9728.60258119
 20
96.4438813546
 10
-9616.86671281
 20
99.9895374863
 10
-9505.13084441
 20
103.535192908
 10
-9393.394976
 20
107.08084758
 10
-9281.65910757
 20
110.626501462
 10
-9169.92323912
 20
114.172154509
 10
-9058.18737065
 20
117.717806673
 10
-8946.45150215
 20
121.263457902
 10
-8834.71563364
 20
124.80910814
 10
-8722.9797651
 20
128.354757328
 10
-8611.24389653
 20
131.900405399
 10
-8499.50802794
 20
135.446052284
 10
-8387.77215932
 20
138.991697903
 10
-8276.03629066
 20
142.537342175
 10
-8164.30042197
 20
146.082985006
 10
-8052.56455325
 20
149.628626298
 10
-7940.82868449
 20
153.174265941
 10
-7829.09281569
 20
156.719903815
 10
-7717.35694684
 20
160.265539787
 10
-7605.62107795
 20
163.811173713
 10
-7493.885209
 20
167.356805431
 10
-7382.14934
 20
170.902434764
 10
-7270.41347094
 20
174.448061514
 10
-7158.67760182
 20
177.993685462
 10
-7046.94173262
 20
181.53930636
 10
-6935.20586335
 20
185.084923934
 10
-6823.46999399
 20
188.630537874
 10
-6711.73412454
 20
192.176147831
 10
-6599.99825499
 20
195.721753409
 10
-6488.26238533
 20
199.267354159
 10
-6376.52651554
 20
202.812949567
 10
-6264.79064562
 20
206.358539044
 10
-6153.05477554
 20
209.904121912
 10
-6041.31890529
 20
213.449697384
 10
-5929.58303485
 20
216.995264543
 10
-5817.84716419
 20
220.540822315
 10
-5706.11129328
 20
224.086369432
 10
-5594.3754221
 20
227.631904388
 10
-5482.63955058
 20
231.177425378
 10
-5370.9036787
 20
234.72293022
 10
-5259.16780638
 20
238.268416255
 10
-5147.43193354
 20
241.813880206
 10
-5035.6960601
 20
245.359317985
 10
-4923.96018594
 20
248.904724433
 10
-4812.22431089
 20
252.450092938
 10
-4700.48843477
 20
255.995414886
  0
LWPOLYLINE
  5
274
330
1F
100
AcDbEntity
  8
main_beam_width
100
AcDbPolyline
 90
10
 70
0
43
0.0
 10
-4700.48843984
 20
255.995711546
 10
-6340.66590065
 20
251.886748961
 10
-7980.84332113
 20
247.763579098
 10
-9621.02069543
 20
243.624142338
 10
-11261.1980168
 20
239.466044313
 10
-12901.3752772
 20
235.286511875
 10
-14541.5524678
 20
231.082353335
 10
-16181.7295781
 20
226.849930616
 10
-17821.9065966
 20
222.585154872
 10
-19462.0835105
 20
218.283521315
  0
LWPOLYLINE
  5
275
330
1F
100
AcDbEntity
  8
main_beam_width
100
AcDbPolyline
 90
10
 70
0
43
0.0
 10
-4700.81686902
 20
281.246837169
 10
-6340.96269632
 20
276.043715984
 10
-7981.10856396
 20
270.854801849
 10
-9621.25447776
 20
265.682154313
 10
-11261.4004445
 20
260.528167662
 10
-12901.5464722
 20
255.395614934
 10
-14541.6925697
 20
250.287687689
 10
-16181.8387475
 20
245.20802384
 10
-17821.9850171
 20
240.160712039
 10
-19462.1313913
 20
235.150256849
  0
LWPOLYLINE
  5
276
330
1F
100
AcDbEntity
  8
main_beam_width
100
AcDbPolyline
 90
10
 70
0
43
0.0
 10
131.28450835
 20
17.9058167122
 10
133.880121379
 20
-1727.9561789
 10
136.475757791
 20
-3473.81817447
 10
139.071417521
 20
-5219.68017001
 10
141.667100501
 20
-6965.54216552
 10
144.262806664
 20
-8711.404161
 10
146.858535946
 20
-10457.2661564
 10
149.45428828
 20
-12203.1281519
 10
152.050063601
 20
-13948.9901472
 10
154.645861843
 20
-15694.8521426
  0
LWPOLYLINE
  5
277
330
1F
100
AcDbEntity
  8
main_beam_width
100
AcDbPolyline
 90
10
 70
0
43
0.0
 10
-81.4072135502
 20
-194.098238795
 10
-79.0473015035
 20
-1916.15246247
 10
-76.6874121999
 20
-3638.20668618
 10
-74.3275455754
 20
-5360.26090993
 10
-71.9677015661
 20
-7082.3151337
 10
-69.6078801085
 20
-8804.36935751
 10
-67.2480811394
 20
-10526.4235813
 10
-64.8883045956
 20
-12248.4778052
 10
-62.5285504142
 20
-13970.5320291
 10
-60.1688185325
 20
-15692.5862531
  0
LWPOLYLINE
  5
278
330
1F
100
AcDbEntity
  8
main_beam_width
100
AcDbPolyline
 90
100
 70
0
43
0.0
 10
-60.1723947398
 20
-15692.5861999
 10
-56.6833839087
 20
-15580.3892466
 10
-53.1943731745
 20
-15468.1922932
 10
-49.7053625401
 20
-15355.9953399
 10
-46.2163520081
 20
-15243.7983865
 10
-42.7273415815
 20
-15131.6014332
 10
-39.2383312632
 20
-15019.4044798
 10
-35.7493210563
 20
-14907.2075264
 10
-32.2603109642
 20
-14795.0105731
 10
-28.77130099
 20
-14682.8136197
 10
-25.2822911373
 20
-14570.6166663
 10
-21.7932814098
 20
-14458.419713
 10
-18.3042718111
 20
-14346.2227596
 10
-14.8152623453
 20
-14234.0258062
 10
-11.3262530162
 20
-14121.8288528
 10
-7.83724382834
 20
-14009.6318994
 10
-4.34823478597
 20
-13897.434946
 10
-0.859225893742
 20
-13785.2379927
 10
2.62978284354
 20
-13673.0410393
 10
6.11879142086
 20
-13560.8440859
 10
9.607799833
 20
-13448.6471325
 10
13.0968080745
 20
-13336.4501791
 10
16.5858161396
 20
-13224.2532256
 10
20.0748240224
 20
-13112.0562722
 10
23.5638317167
 20
-12999.8593188
 10
27.0528392159
 20
-12887.6623654
 10
30.5418465132
 20
-12775.465412
 10
34.0308536015
 20
-12663.2684585
 10
37.5198604732
 20
-12551.0715051
 10
41.0088671206
 20
-12438.8745517
 10
44.4978735353
 20
-12326.6775982
 10
47.9868797088
 20
-12214.4806448
 10
51.475885632
 20
-12102.2836913
 10
54.9648912953
 20
-11990.0867378
 10
58.4538966887
 20
-11877.8897844
 10
61.9429018016
 20
-11765.6928309
 10
65.431906623
 20
-11653.4958774
 10
68.9209111412
 20
-11541.2989239
 10
72.4099153437
 20
-11429.1019704
 10
75.8989192177
 20
-11316.9050169
 10
79.3879227493
 20
-11204.7080634
 10
82.876925924
 20
-11092.5111099
 10
86.3659287265
 20
-10980.3141563
 10
89.8549311406
 20
-10868.1172028
 10
93.343933149
 20
-10755.9202493
 10
96.8329347335
 20
-10643.7232957
 10
100.321935875
 20
-10531.5263421
 10
103.810936552
 20
-10419.3293886
 10
107.299936744
 20
-10307.132435
 10
110.788936427
 20
-10194.9354814
 10
114.277935577
 20
-10082.7385278
 10
117.766934167
 20
-9970.54157414
 10
121.255932168
 20
-9858.3446205
 10
124.744929552
 20
-9746.14766685
 10
128.233926285
 20
-9633.95071319
 10
131.722922335
 20
-9521.75375951
 10
135.211917662
 20
-9409.55680581
 10
138.700912229
 20
-9297.35985209
 10
142.189905993
 20
-9185.16289836
 10
145.678898907
 20
-9072.96594461
 10
149.167890923
 20
-8960.76899084
 10
152.656881988
 20
-8848.57203705
 10
156.145872045
 20
-8736.37508323
 10
159.63486103
 20
-8624.17812939
 10
163.123848877
 20
-8511.98117552
 10
166.612835514
 20
-8399.78422163
 10
170.10182086
 20
-8287.58726771
 10
173.590804828
 20
-8175.39031376
 10
177.079787326
 20
-8063.19335977
 10
180.568768248
 20
-7950.99640575
 10
184.057747483
 20
-7838.79945169
 10
187.546724905
 20
-7726.60249759
 10
191.035700379
 20
-7614.40554344
 10
194.524673752
 20
-7502.20858925
 10
198.013644859
 20
-7390.01163501
 10
201.502613515
 20
-7277.81468071
 10
204.991579512
 20
-7165.61772635
 10
208.480542623
 20
-7053.42077193
 10
211.96950259
 20
-6941.22381744
 10
215.458459126
 20
-6829.02686287
 10
218.947411906
 20
-6716.82990821
 10
222.436360564
 20
-6604.63295346
 10
225.925304684
 20
-6492.43599861
 10
229.414243792
 20
-6380.23904365
 10
232.903177347
 20
-6268.04208856
 10
236.392104726
 20
-6155.84513333
 10
239.88102521
 20
-6043.64817795
 10
243.369937962
 20
-5931.45122239
 10
246.858842006
 20
-5819.25426664
 10
250.347736194
 20
-5707.05731066
 10
253.836619166
 20
-5594.86035443
 10
257.325489301
 20
-5482.66339792
 10
260.814344649
 20
-5370.46644107
 10
264.303182845
 20
-5258.26948383
 10
267.792000989
 20
-5146.07252614
 10
271.280795491
 20
-5033.87556792
 10
274.769561848
 20
-4921.67860906
 10
278.258294338
 20
-4809.48164945
 10
281.746985572
 20
-4697.2846889
 10
285.235625848
 20
-4585.0877272
  0
LWPOLYLINE
  5
279
330
1F
100
AcDbEntity
  8
main_beam_width
100
AcDbPolyline
 90
100
 70
0
43
0.0
 10
154.638347636
 20
-15694.8520957
 10
156.205040873
 20
-15582.6353115
 10
157.771734208
 20
-15470.4185273
 10
159.338427642
 20
-15358.201743
 10
160.905121179
 20
-15245.9849588
 10
162.471814821
 20
-15133.7681746
 10
164.038508572
 20
-15021.5513904
 10
165.605202434
 20
-14909.3346062
 10
167.17189641
 20
-14797.117822
 10
168.738590505
 20
-14684.9010378
 10
170.305284721
 20
-14572.6842536
 10
171.871979063
 20
-14460.4674694
 10
173.438673533
 20
-14348.2506852
 10
175.005368136
 20
-14236.033901
 10
176.572062876
 20
-14123.8171168
 10
178.138757757
 20
-14011.6003326
 10
179.705452784
 20
-13899.3835484
 10
181.272147961
 20
-13787.1667643
 10
182.838843293
 20
-13674.9499801
 10
184.405538784
 20
-13562.7331959
 10
185.972234441
 20
-13450.5164117
 10
187.538930269
 20
-13338.2996276
 10
189.105626273
 20
-13226.0828434
 10
190.67232246
 20
-13113.8660593
 10
192.239018835
 20
-13001.6492751
 10
193.805715405
 20
-12889.432491
 10
195.372412177
 20
-12777.2157068
 10
196.939109158
 20
-12664.9989227
 10
198.505806356
 20
-12552.7821385
 10
200.072503778
 20
-12440.5653544
 10
201.639201433
 20
-12328.3485703
 10
203.205899329
 20
-12216.1317862
 10
204.772597475
 20
-12103.9150021
 10
206.339295882
 20
-11991.698218
 10
207.905994558
 20
-11879.4814339
 10
209.472693515
 20
-11767.2646498
 10
211.039392763
 20
-11655.0478657
 10
212.606092315
 20
-11542.8310816
 10
214.172792183
 20
-11430.6142975
 10
215.739492379
 20
-11318.3975134
 10
217.306192917
 20
-11206.1807294
 10
218.872893813
 20
-11093.9639453
 10
220.43959508
 20
-10981.7471613
 10
222.006296737
 20
-10869.5303773
 10
223.572998799
 20
-10757.3135932
 10
225.139701285
 20
-10645.0968092
 10
226.706404214
 20
-10532.8800252
 10
228.273107607
 20
-10420.6632412
 10
229.839811486
 20
-10308.4464572
 10
231.406515874
 20
-10196.2296733
 10
232.973220795
 20
-10084.0128893
 10
234.539926276
 20
-9971.79610536
 10
236.106632346
 20
-9859.57932143
 10
237.673339033
 20
-9747.36253751
 10
239.240046371
 20
-9635.1457536
 10
240.806754394
 20
-9522.92896971
 10
242.373463138
 20
-9410.71218584
 10
243.940172643
 20
-9298.49540198
 10
245.506882951
 20
-9186.27861814
 10
247.073594109
 20
-9074.06183432
 10
248.640306164
 20
-8961.84505053
 10
250.207019172
 20
-8849.62826675
 10
251.773733188
 20
-8737.41148299
 10
253.340448276
 20
-8625.19469926
 10
254.907164501
 20
-8512.97791556
 10
256.473881938
 20
-8400.76113188
 10
258.040600666
 20
-8288.54434823
 10
259.607320771
 20
-8176.32756461
 10
261.174042348
 20
-8064.11078103
 10
262.7407655
 20
-7951.89399748
 10
264.307490339
 20
-7839.67721397
 10
265.874216992
 20
-7727.4604305
 10
267.440945594
 20
-7615.24364707
 10
269.007676295
 20
-7503.02686369
 10
270.574409264
 20
-7390.81008036
 10
272.141144686
 20
-7278.59329709
 10
273.707882765
 20
-7166.37651388
 10
275.274623731
 20
-7054.15973073
 10
276.841367842
 20
-6941.94294765
 10
278.408115385
 20
-6829.72616465
 10
279.974866684
 20
-6717.50938174
 10
281.541622106
 20
-6605.29259891
 10
283.108382067
 20
-6493.07581619
 10
284.67514704
 20
-6380.85903359
 10
286.241917567
 20
-6268.64225111
 10
287.808694271
 20
-6156.42546876
 10
289.375477872
 20
-6044.20868657
 10
290.942269205
 20
-5931.99190456
 10
292.509069248
 20
-5819.77512274
 10
294.075879149
 20
-5707.55834115
 10
295.642700267
 20
-5595.34155981
 10
297.209534224
 20
-5483.12477875
 10
298.77638297
 20
-5370.90799803
 10
300.343248871
 20
-5258.6912177
 10
301.910134826
 20
-5146.47443782
 10
303.477044427
 20
-5034.25765847
 10
305.043982176
 20
-4922.04087976
 10
306.610953797
 20
-4809.8241018
 10
308.177966677
 20
-4697.60732478
 10
309.745030522
 20
-4585.39054891
  0
LWPOLYLINE
  5
27a
330
1F
100
AcDbEntity
  8
main_beam_width
100
AcDbPolyline
 90
10
 70
0
43
0.0
 10
309.745765926
 20
-4585.39055498
 10
305.593486073
 20
-6223.28807848
 10
301.456873214
 20
-7861.18563621
 10
297.338404104
 20
-9499.08323359
 10
293.240996747
 20
-11136.980877
 10
289.168074322
 20
-12774.8785739
 10
285.123622441
 20
-14412.776333
 10
281.112226357
 20
-16050.6741643
 10
277.139067516
 20
-17688.5720792
 10
273.209851262
 20
-19326.4700901
  0
LWPOLYLINE
  5
27b
330
1F
100
AcDbEntity
  8
main_beam_width
100
AcDbPolyline
 90
10
 70
0
43
0.0
 10
285.235913045
 20
-4585.08773193
 10
282.230310757
 20
-6223.01545737
 10
279.209041253
 20
-7860.94314858
 10
276.169627702
 20
-9498.87080015
 10
273.109152006
 20
-11136.7984057
 10
270.024190861
 20
-12774.7259577
 10
266.910758496
 20
-14412.6534476
 10
263.764269463
 20
-16050.5808652
 10
260.579542077
 20
-17688.5081992
 10
257.350870717
 20
-19326.4354372
  0
CIRCLE
  5
27d
330
1F
100
AcDbEntity
  8
Vacuum
100
AcDbCircle
 10
-19512.0901964
 20
226.574999379
 30
0.0
  40
750.0
  0
LWPOLYLINE
  5
27e
330
1F
100
AcDbEntity
  8
Vacuum
100
AcDbPolyline
 90
5
 70
0
43
0.0
 10
-20362.0901964
 20
619.074999379
 10
-18662.0901964
 20
619.074999379
 10
-18662.0901964
 20
-165.925000621
 10
-20362.0901964
 20
-165.925000621
 10
-20362.0901964
 20
619.074999379
  0
CIRCLE
  5
27f
330
1F
100
AcDbEntity
  8
Vacuum
100
AcDbCircle
 10
-4648.14247562
 20
269.304550668
 30
0.0
  40
750.0
  0
LWPOLYLINE
  5
280
330
1F
100
AcDbEntity
  8
Vacuum
100
AcDbPolyline
 90
5
 70
0
43
0.0
 10
-5498.14247562
 20
501.804550668
 10
-3798.14247562
 20
501.804550668
 10
-3798.14247562
 20
-283.195449332
 10
-5498.14247562
 20
-283.195449332
 10
-5498.14247562
 20
501.804550668
  0
CIRCLE
  5
281
330
1F
100
AcDbEntity
  8
Vacuum
100
AcDbCircle
 10
-15813.4545987
 20
11.6583013092
 30
0.0
  40
750.0
  0
LWPOLYLINE
  5
282
330
1F
100
AcDbEntity
  8
Vacuum
100
AcDbPolyline
 90
5
 70
0
43
0.0
 10
-16663.4545987
 20
564.158301309
 10
-14963.4545987
 20
564.158301309
 10
-14963.4545987
 20
-220.841698691
 10
-16663.4545987
 20
-220.841698691
 10
-16663.4545987
 20
564.158301309
  0
LINE
  5
283
330
1F
100
AcDbEntity
  8
Vacuum
100
AcDbLine
 10
-18662.0901964
 20
619.074999379
 30
0.0
  11
-16663.4545987
 21
564.158301309
 31
0.0
  0
LINE
  5
284
330
1F
100
AcDbEntity
  8
Vacuum
100
AcDbLine
 10
-18662.0901964
 20
-165.925000621
 30
0.0
  11
-16663.4545987
 21
-220.841698691
 31
0.0
  0
LINE
  5
285
330
1F
100
AcDbEntity
  8
Vacuum
100
AcDbLine
 10
-14963.4545987
 20
564.158301309
 30
0.0
  11
-5498.14247562
 21
501.804550668
 31
0.0
  0
LINE
  5
286
330
1F
100
AcDbEntity
  8
Vacuum
100
AcDbLine
 10
-14963.4545987
 20
-220.841698691
 30
0.0
  11
-5498.14247562
 21
-283.195449332
 31
0.0
  0
CIRCLE
  5
287
330
1F
100
AcDbEntity
  8
Vacuum
100
AcDbCircle
 10
28.2779650527
 20
-28.2905760365
 30
0.0
  40
750.0
  0
LWPOLYLINE
  5
288
330
1F
100
AcDbEntity
  8
Vacuum
100
AcDbPolyline
 90
5
 70
0
43
0.0
 10
-821.722034947
 20
364.209423964
 10
878.277965053
 20
364.209423964
 10
878.277965053
 20
-420.790576036
 10
-821.722034947
 20
-420.790576036
 10
-821.722034947
 20
364.209423964
  0
LWPOLYLINE
  5
289
330
1F
100
AcDbEntity
  8
Vacuum
100
AcDbPolyline
 90
5
 70
0
43
0.0
 10
-364.222034947
 20
821.709423964
 10
420.777965053
 20
821.709423964
 10
420.777965053
 20
-878.290576036
 10
-364.222034947
 20
-878.290576036
 10
-364.222034947
 20
821.709423964
  0
LINE
  5
28a
330
1F
100
AcDbEntity
  8
Vacuum
100
AcDbLine
 10
-3798.14247562
 20
501.804550668
 30
0.0
  11
-821.722034947
 21
364.209423964
 31
0.0
  0
LINE
  5
28b
330
1F
100
AcDbEntity
  8
Vacuum
100
AcDbLine
 10
-3798.14247562
 20
-283.195449332
 30
0.0
  11
-821.722034947
 21
-420.790576036
 31
0.0
  0
CIRCLE
  5
28c
330
1F
100
AcDbEntity
  8
Vacuum
100
AcDbCircle
 10
265.171145199
 20
-19376.4355913
 30
0.0
  40
750.0
  0
LWPOLYLINE
  5
28d
330
1F
100
AcDbEntity
  8
Vacuum
100
AcDbPolyline
 90
5
 70
0
43
0.0
 10
-127.328854801
 20
-18526.4355913
 10
657.671145199
 20
-18526.4355913
 10
657.671145199
 20
-20226.4355913
 10
-127.328854801
 20
-20226.4355913
 10
-127.328854801
 20
-18526.4355913
  0
CIRCLE
  5
28e
330
1F
100
AcDbEntity
  8
Vacuum
100
AcDbCircle
 10
298.140858953
 20
-4532.65181384
 30
0.0
  40
750.0
  0
LWPOLYLINE
  5
28f
330
1F
100
AcDbEntity
  8
Vacuum
100
AcDbPolyline
 90
5
 70
0
43
0.0
 10
-254.359141047
 20
-3682.65181384
 10
530.640858953
 20
-3682.65181384
 10
530.640858953
 20
-5382.65181384
 10
-254.359141047
 20
-5382.65181384
 10
-254.359141047
 20
-3682.65181384
  0
CIRCLE
  5
290
330
1F
100
AcDbEntity
  8
Vacuum
100
AcDbCircle
 10
46.7147158387
 20
-15743.6344271
 30
0.0
  40
750.0
  0
LWPOLYLINE
  5
291
330
1F
100
AcDbEntity
  8
Vacuum
100
AcDbPolyline
 90
5
 70
0
43
0.0
 10
-345.785284161
 20
-14893.6344271
 10
439.214715839
 20
-14893.6344271
 10
439.214715839
 20
-16593.6344271
 10
-345.785284161
 20
-16593.6344271
 10
-345.785284161
 20
-14893.6344271
  0
LINE
  5
292
330
1F
100
AcDbEntity
  8
Vacuum
100
AcDbLine
 10
-127.328854801
 20
-18526.4355913
 30
0.0
  11
-345.785284161
 21
-16593.6344271
 31
0.0
  0
LINE
  5
293
330
1F
100
AcDbEntity
  8
Vacuum
100
AcDbLine
 10
657.671145199
 20
-18526.4355913
 30
0.0
  11
439.214715839
 21
-16593.6344271
 31
0.0
  0
LINE
  5
294
330
1F
100
AcDbEntity
  8
Vacuum
100
AcDbLine
 10
-345.785284161
 20
-14893.6344271
 30
0.0
  11
-254.359141047
 21
-5382.65181384
 31
0.0
  0
LINE
  5
295
330
1F
100
AcDbEntity
  8
Vacuum
100
AcDbLine
 10
439.214715839
 20
-14893.6344271
 30
0.0
  11
530.640858953
 21
-5382.65181384
 31
0.0
  0
LINE
  5
296
330
1F
100
AcDbEntity
  8
Vacuum
100
AcDbLine
 10
-254.359141047
 20
-3682.65181384
 30
0.0
  11
-364.222034947
 21
-878.290576036
 31
0.0
  0
LINE
  5
297
330
1F
100
AcDbEntity
  8
Vacuum
100
AcDbLine
 10
530.640858953
 20
-3682.65181384
 30
0.0
  11
420.777965053
 21
-878.290576036
 31
0.0
  0
CIRCLE
  5
298
330
1F
100
AcDbEntity
  8
Vacuum
100
AcDbCircle
 10
26432.1160223
 20
-16.3807284905
 30
0.0
  40
1250.0
  0
LWPOLYLINE
  5
299
330
1F
100
AcDbEntity
  8
Vacuum
100
AcDbPolyline
 90
5
 70
0
43
0.0
 10
25082.1160223
 20
376.119271509
 10
27782.1160223
 20
376.119271509
 10
27782.1160223
 20
-408.880728491
 10
25082.1160223
 20
-408.880728491
 10
25082.1160223
 20
376.119271509
  0
CIRCLE
  5
29a
330
1F
100
AcDbEntity
  8
Vacuum
100
AcDbCircle
 10
-7.59055707329
 20
23146.9789127
 30
0.0
  40
1250.0
  0
LWPOLYLINE
  5
29b
330
1F
100
AcDbEntity
  8
Vacuum
100
AcDbPolyline
 90
5
 70
0
43
0.0
 10
-400.090557073
 20
24496.9789127
 10
384.909442927
 20
24496.9789127
 10
384.909442927
 20
21796.9789127
 10
-400.090557073
 20
21796.9789127
 10
-400.090557073
 20
24496.9789127
  0
LINE
  5
29c
330
1F
100
AcDbEntity
  8
Vacuum
100
AcDbLine
 10
878.277965053
 20
364.209423964
 30
0.0
  11
25082.1160223
 21
376.119271509
 31
0.0
  0
LINE
  5
29d
330
1F
100
AcDbEntity
  8
Vacuum
100
AcDbLine
 10
878.277965053
 20
-420.790576036
 30
0.0
  11
25082.1160223
 21
-408.880728491
 31
0.0
  0
LINE
  5
29e
330
1F
100
AcDbEntity
  8
Vacuum
100
AcDbLine
 10
-364.222034947
 20
821.709423964
 30
0.0
  11
-400.090557073
 21
21796.9789127
 31
0.0
  0
LINE
  5
29f
330
1F
100
AcDbEntity
  8
Vacuum
100
AcDbLine
 10
420.777965053
 20
821.709423964
 30
0.0
  11
384.909442927
 21
21796.9789127
 31
0.0
  0
LINE
  5
2a1
330
1F
100
AcDbEntity
  8
poxpoy_beam
100
AcDbLine
 10
-7.45966013212
 20
23221.9757285
 30
0.0
  11
-7.32874241651
 21
23071.9787985
 31
0.0
  0
LINE
  5
2a2
330
1F
100
AcDbEntity
  8
poxpoy_beam
100
AcDbLine
 10
35.5166532741
 20
35.5008211491
 30
0.0
  11
60.5468715896
 21
-52.6031139417
 31
0.0
  0
LINE
  5
2a3
330
1F
100
AcDbEntity
  8
poxpoy_beam
100
AcDbLine
 10
-7.5905570805
 20
23071.9789127
 30
0.0
  11
-7.45966013212
 21
23221.9757285
 31
0.0
  0
LINE
  5
2a4
330
1F
100
AcDbEntity
  8
poxpoy_beam
100
AcDbLine
 10
-7.32874241651
 20
23071.9787985
 30
0.0
  11
35.5166532741
 21
35.5008211491
 31
0.0
  0
LINE
  5
2a5
330
1F
100
AcDbEntity
  8
poxpoy_beam
100
AcDbLine
 10
-15764.3684803
 20
71.9315809372
 30
0.0
  11
-4700.89504756
 21
292.233282173
 31
0.0
  0
LINE
  5
2a6
330
1F
100
AcDbEntity
  8
poxpoy_beam
100
AcDbLine
 10
88.2163902141
 20
-25.0230553013
 30
0.0
  11
32.3196010615
 21
-15693.7889054
 31
0.0
  0
LINE
  5
2a7
330
1F
100
AcDbEntity
  8
poxpoy_beam
100
AcDbLine
 10
35.5166532741
 20
35.5008211491
 30
0.0
  11
-15764.3684803
 21
71.9315809372
 31
0.0
  0
LINE
  5
2a8
330
1F
100
AcDbEntity
  8
poxpoy_beam
100
AcDbLine
 10
-4700.89504756
 20
292.233282173
 30
0.0
  11
-19700.2533885
 21
430.975347515
 31
0.0
  0
LINE
  5
2a9
330
1F
100
AcDbEntity
  8
poxpoy_beam
100
AcDbLine
 10
32.3196010615
 20
-15693.7889054
 30
0.0
  11
240.379429695
 21
-4584.01241698
 31
0.0
  0
LINE
  5
2aa
330
1F
100
AcDbEntity
  8
poxpoy_beam
100
AcDbLine
 10
240.379429695
 20
-4584.01241698
 30
0.0
  11
-250.941281021
 21
-15684.8694323
 31
0.0
  0
LWPOLYLINE
  5
2ad
330
1F
100
AcDbEntity
  8
poxpoy_beam_width
100
AcDbPolyline
 90
10
 70
0
43
0.0
 10
27.9037111956
 20
23221.9757309
 10
27.9191909485
 20
23205.3076902
 10
27.9346707015
 20
23188.6396495
 10
27.9501504549
 20
23171.9716088
 10
27.9656302084
 20
23155.3035681
 10
27.9811099622
 20
23138.6355274
 10
27.9965897163
 20
23121.9674867
 10
28.0120694705
 20
23105.299446
 10
28.027549225
 20
23088.6314053
 10
28.0430289797
 20
23071.9633646
  0
LWPOLYLINE
  5
2ae
330
1F
100
AcDbEntity
  8
poxpoy_beam_width
100
AcDbPolyline
 90
10
 70
0
43
0.0
 10
-42.823028009
 20
23221.9757261
 10
-42.8094147443
 20
23205.3111156
 10
-42.7958014798
 20
23188.6465052
 10
-42.7821882156
 20
23171.9818948
 10
-42.7685749516
 20
23155.3172844
 10
-42.7549616879
 20
23138.652674
 10
-42.7413484243
 20
23121.9880636
 10
-42.727735161
 20
23105.3234531
 10
-42.714121898
 20
23088.6588427
 10
-42.7005086351
 20
23071.9942323
  0
LWPOLYLINE
  5
2af
330
1F
100
AcDbEntity
  8
poxpoy_beam_width
100
AcDbPolyline
 90
10
 70
0
43
0.0
 10
73.0770121284
 20
73.0444368633
 10
75.8611760638
 20
63.2464966826
 10
78.6453399992
 20
53.4485565018
 10
81.4295039347
 20
43.650616321
 10
84.2136678703
 20
33.8526761403
 10
86.9978318059
 20
24.0547359595
 10
89.7819957416
 20
14.2567957788
 10
92.5661596773
 20
4.45885559813
 10
95.3503236131
 20
-5.33908458256
 10
98.1344875489
 20
-15.1370247632
  0
LWPOLYLINE
  5
2b0
330
1F
100
AcDbEntity
  8
poxpoy_beam_width
100
AcDbPolyline
 90
10
 70
0
43
0.0
 10
-2.04600366654
 20
-2.04509162718
 10
0.732103787765
 20
-11.8258023262
 10
3.51021124202
 20
-21.6065130253
 10
6.28831869622
 20
-31.3872237243
 10
9.06642615037
 20
-41.1679344234
 10
11.8445336045
 20
-50.9486451225
 10
14.6226410585
 20
-60.7293558216
 10
17.4007485125
 20
-70.5100665208
 10
20.1788559664
 20
-80.2907772199
 10
22.9569634203
 20
-90.0714879191
  0
LWPOLYLINE
  5
2b1
330
1F
100
AcDbEntity
  8
poxpoy_beam_width
100
AcDbPolyline
 90
10
 70
0
43
0.0
 10
-42.9511107968
 20
23071.9943416
 10
-42.9368795027
 20
23088.6589399
 10
-42.9226482088
 20
23105.3235382
 10
-42.9084169151
 20
23121.9881365
 10
-42.8941856216
 20
23138.6527347
 10
-42.8799543284
 20
23155.317333
 10
-42.8657230354
 20
23171.9819313
 10
-42.8514917427
 20
23188.6465295
 10
-42.8372604501
 20
23205.3111278
 10
-42.8230291579
 20
23221.9757261
  0
LWPOLYLINE
  5
2b2
330
1F
100
AcDbEntity
  8
poxpoy_beam_width
100
AcDbPolyline
 90
10
 70
0
43
0.0
 10
27.7699972123
 20
23071.9634837
 10
27.784854193
 20
23088.6315112
 10
27.7997111739
 20
23105.2995387
 10
27.814568155
 20
23121.9675661
 10
27.8294251364
 20
23138.6355936
 10
27.844282118
 20
23155.3036211
 10
27.8591390998
 20
23171.9716485
 10
27.8739960819
 20
23188.639676
 10
27.8888530642
 20
23205.3077035
 10
27.9037100467
 20
23221.9757309
  0
LWPOLYLINE
  5
2b3
330
1F
100
AcDbEntity
  8
poxpoy_beam_width
100
AcDbPolyline
 90
10
 70
0
43
0.0
 10
28.0430343555
 20
23071.9633646
 10
33.0464663986
 20
20516.5276481
 10
38.0499150136
 20
17961.0919317
 10
43.0533798555
 20
15405.6562153
 10
48.0568605889
 20
12850.2204989
 10
53.0603568876
 20
10294.7847825
 10
58.0638684341
 20
7739.34906619
 10
63.0673949196
 20
5183.91334989
 10
68.0709360435
 20
2628.47763362
 10
73.0744915132
 20
73.0419173717
  0
LWPOLYLINE
  5
2b4
330
1F
100
AcDbEntity
  8
poxpoy_beam_width
100
AcDbPolyline
 90
10
 70
0
43
0.0
 10
-42.7005032594
 20
23071.9942323
 10
-38.1835531823
 20
20508.2118053
 10
-33.6666197843
 20
17944.4293783
 10
-29.1497027172
 20
15380.6469512
 10
-24.6328016423
 20
12816.8645241
 10
-20.1159162303
 20
10253.082097
 10
-15.5990461608
 20
7689.29966985
 10
-11.0821911221
 20
5125.51724267
 10
-6.56535081066
 20
2561.73481546
 10
-2.04852493134
 20
-2.04761176808
  0
LWPOLYLINE
  5
2b5
330
1F
100
AcDbEntity
  8
poxpoy_beam_width
100
AcDbPolyline
 90
100
 70
0
43
0.0
 10
-15764.6825599
 20
111.113394926
 10
-15652.9273755
 20
112.998080217
 10
-15541.1721911
 20
114.882765533
 10
-15429.4170067
 20
116.767450874
 10
-15317.6618223
 20
118.65213624
 10
-15205.9066379
 20
120.536821633
 10
-15094.1514535
 20
122.421507054
 10
-14982.3962692
 20
124.306192502
 10
-14870.6410848
 20
126.190877979
 10
-14758.8859004
 20
128.075563485
 10
-14647.130716
 20
129.960249022
 10
-14535.3755316
 20
131.84493459
 10
-14423.6203472
 20
133.729620191
 10
-14311.8651629
 20
135.614305824
 10
-14200.1099785
 20
137.498991492
 10
-14088.3547941
 20
139.383677195
 10
-13976.5996097
 20
141.268362934
 10
-13864.8444253
 20
143.153048711
 10
-13753.089241
 20
145.037734526
 10
-13641.3340566
 20
146.92242038
 10
-13529.5788722
 20
148.807106276
 10
-13417.8236878
 20
150.691792214
 10
-13306.0685035
 20
152.576478195
 10
-13194.3133191
 20
154.461164222
 10
-13082.5581347
 20
156.345850294
 10
-12970.8029503
 20
158.230536416
 10
-12859.047766
 20
160.115222586
 10
-12747.2925816
 20
161.999908808
 10
-12635.5373972
 20
163.884595084
 10
-12523.7822129
 20
165.769281414
 10
-12412.0270285
 20
167.653967801
 10
-12300.2718441
 20
169.538654247
 10
-12188.5166598
 20
171.423340755
 10
-12076.7614754
 20
173.308027325
 10
-11965.0062911
 20
175.192713962
 10
-11853.2511067
 20
177.077400666
 10
-11741.4959223
 20
178.962087441
 10
-11629.740738
 20
180.84677429
 10
-11517.9855536
 20
182.731461215
 10
-11406.2303693
 20
184.616148219
 10
-11294.4751849
 20
186.500835306
 10
-11182.7200006
 20
188.385522479
 10
-11070.9648162
 20
190.270209741
 10
-10959.2096319
 20
192.154897096
 10
-10847.4544475
 20
194.039584548
 10
-10735.6992632
 20
195.924272101
 10
-10623.9440788
 20
197.80895976
 10
-10512.1888945
 20
199.693647529
 10
-10400.4337102
 20
201.578335413
 10
-10288.6785258
 20
203.463023418
 10
-10176.9233415
 20
205.347711549
 10
-10065.1681572
 20
207.232399811
 10
-9953.41297285
 20
209.117088211
 10
-9841.65778852
 20
211.001776757
 10
-9729.9026042
 20
212.886465454
 10
-9618.14741989
 20
214.771154311
 10
-9506.39223557
 20
216.655843335
 10
-9394.63705126
 20
218.540532535
 10
-9282.88186696
 20
220.425221922
 10
-9171.12668265
 20
222.309911503
 10
-9059.37149836
 20
224.194601291
 10
-8947.61631406
 20
226.079291296
 10
-8835.86112977
 20
227.963981531
 10
-8724.10594549
 20
229.848672009
 10
-8612.35076121
 20
231.733362745
 10
-8500.59557693
 20
233.618053753
 10
-8388.84039267
 20
235.502745051
 10
-8277.0852084
 20
237.387436657
 10
-8165.33002415
 20
239.27212859
 10
-8053.5748399
 20
241.156820871
 10
-7941.81965566
 20
243.041513524
 10
-7830.06447143
 20
244.926206574
 10
-7718.3092872
 20
246.810900049
 10
-7606.55410298
 20
248.695593979
 10
-7494.79891878
 20
250.580288397
 10
-7383.04373458
 20
252.464983341
 10
-7271.2885504
 20
254.349678849
 10
-7159.53336623
 20
256.234374967
 10
-7047.77818207
 20
258.119071745
 10
-6936.02299792
 20
260.003769236
 10
-6824.26781379
 20
261.888467503
 10
-6712.51262968
 20
263.773166613
 10
-6600.75744559
 20
265.657866644
 10
-6489.00226151
 20
267.54256768
 10
-6377.24707746
 20
269.42726982
 10
-6265.49189343
 20
271.311973174
 10
-6153.73670943
 20
273.196677867
 10
-6041.98152546
 20
275.081384042
 10
-5930.22634152
 20
276.966091863
 10
-5818.47115762
 20
278.850801521
 10
-5706.71597375
 20
280.735513235
 10
-5594.96078994
 20
282.620227263
 10
-5483.20560617
 20
284.504943904
 10
-5371.45042247
 20
286.389663515
 10
-5259.69523883
 20
288.274386519
 10
-5147.94005527
 20
290.159113423
 10
-5036.1848718
 20
292.043844843
 10
-4924.42968844
 20
293.928581529
 10
-4812.6745052
 20
295.813324408
 10
-4700.9193221
 20
297.698074637
  0
LWPOLYLINE
  5
2b6
330
1F
100
AcDbEntity
  8
poxpoy_beam_width
100
AcDbPolyline
 90
100
 70
0
43
0.0
 10
-15763.9927643
 20
32.7483413316
 10
-15652.2439595
 20
35.3142069072
 10
-15540.4951546
 20
37.8800724582
 10
-15428.7463497
 20
40.4459379842
 10
-15316.9975448
 20
43.0118034844
 10
-15205.2487399
 20
45.5776689581
 10
-15093.499935
 20
48.1435344046
 10
-14981.7511301
 20
50.7093998231
 10
-14870.0023252
 20
53.2752652129
 10
-14758.2535203
 20
55.841130573
 10
-14646.5047154
 20
58.4069959028
 10
-14534.7559105
 20
60.9728612013
 10
-14423.0071056
 20
63.5387264675
 10
-14311.2583007
 20
66.1045917007
 10
-14199.5094958
 20
68.6704568997
 10
-14087.7606909
 20
71.2363220635
 10
-13976.011886
 20
73.8021871911
 10
-13864.2630811
 20
76.3680522814
 10
-13752.5142762
 20
78.9339173332
 10
-13640.7654712
 20
81.4997823453
 10
-13529.0166663
 20
84.0656473164
 10
-13417.2678614
 20
86.6315122453
 10
-13305.5190565
 20
89.1973771306
 10
-13193.7702516
 20
91.7632419709
 10
-13082.0214467
 20
94.3291067647
 10
-12970.2726418
 20
96.8949715104
 10
-12858.5238369
 20
99.4608362064
 10
-12746.775032
 20
102.026700851
 10
-12635.026227
 20
104.592565443
 10
-12523.2774221
 20
107.158429979
 10
-12411.5286172
 20
109.724294459
 10
-12299.7798123
 20
112.290158879
 10
-12188.0310074
 20
114.856023239
 10
-12076.2822025
 20
117.421887535
 10
-11964.5333975
 20
119.987751765
 10
-11852.7845926
 20
122.553615928
 10
-11741.0357877
 20
125.119480019
 10
-11629.2869828
 20
127.685344037
 10
-11517.5381778
 20
130.251207979
 10
-11405.7893729
 20
132.817071842
 10
-11294.040568
 20
135.382935622
 10
-11182.291763
 20
137.948799316
 10
-11070.5429581
 20
140.514662921
 10
-10958.7941532
 20
143.080526433
 10
-10847.0453482
 20
145.646389847
 10
-10735.2965433
 20
148.212253161
 10
-10623.5477384
 20
150.778116369
 10
-10511.7989334
 20
153.343979467
 10
-10400.0501285
 20
155.909842449
 10
-10288.3013235
 20
158.475705312
 10
-10176.5525186
 20
161.041568048
 10
-10064.8037136
 20
163.607430653
 10
-9953.05490865
 20
166.173293119
 10
-9841.30610369
 20
168.739155441
 10
-9729.55729873
 20
171.30501761
 10
-9617.80849376
 20
173.870879621
 10
-9506.05968879
 20
176.436741463
 10
-9394.31088382
 20
179.00260313
 10
-9282.56207884
 20
181.568464611
 10
-9170.81327386
 20
184.134325896
 10
-9059.06446888
 20
186.700186976
 10
-8947.31566389
 20
189.266047838
 10
-8835.5668589
 20
191.83190847
 10
-8723.8180539
 20
194.397768858
 10
-8612.0692489
 20
196.96362899
 10
-8500.32044389
 20
199.529488849
 10
-8388.57163887
 20
202.095348418
 10
-8276.82283385
 20
204.66120768
 10
-8165.07402882
 20
207.227066614
 10
-8053.32522379
 20
209.7929252
 10
-7941.57641875
 20
212.358783414
 10
-7829.8276137
 20
214.924641231
 10
-7718.07880864
 20
217.490498624
 10
-7606.33000357
 20
220.056355561
 10
-7494.5811985
 20
222.62221201
 10
-7382.83239341
 20
225.188067935
 10
-7271.08358831
 20
227.753923294
 10
-7159.3347832
 20
230.319778043
 10
-7047.58597808
 20
232.885632134
 10
-6935.83717294
 20
235.45148551
 10
-6824.08836779
 20
238.017338111
 10
-6712.33956262
 20
240.583189869
 10
-6600.59075743
 20
243.149040706
 10
-6488.84195222
 20
245.714890538
 10
-6377.09314699
 20
248.280739266
 10
-6265.34434173
 20
250.846586781
 10
-6153.59553645
 20
253.412432956
 10
-6041.84673114
 20
255.97827765
 10
-5930.0979258
 20
258.544120697
 10
-5818.34912042
 20
261.109961908
 10
-5706.600315
 20
263.675801063
 10
-5594.85150953
 20
266.241637906
 10
-5483.10270401
 20
268.807472134
 10
-5371.35389843
 20
271.373303393
 10
-5259.60509279
 20
273.93913126
 10
-5147.85628706
 20
276.504955226
 10
-5036.10748125
 20
279.070774678
 10
-4924.35867533
 20
281.636588864
 10
-4812.60986929
 20
284.202396859
 10
-4700.8610631
 20
286.768197504
  0
LWPOLYLINE
  5
2b7
330
1F
100
AcDbEntity
  8
poxpoy_beam_width
100
AcDbPolyline
 90
10
 70
0
43
0.0
 10
124.397776314
 20
11.0413505837
 10
118.229958834
 20
-1733.9820979
 10
112.062148773
 20
-3479.0055464
 10
105.894346094
 20
-5224.02899493
 10
99.7265507644
 20
-6969.05244349
 10
93.5587627477
 20
-8714.07589208
 10
87.3909820096
 20
-10459.0993407
 10
81.2232085159
 20
-12204.1227893
 10
75.0554422323
 20
-13949.146238
 10
68.8876831248
 20
-15694.1696867
  0
LWPOLYLINE
  5
2b8
330
1F
100
AcDbEntity
  8
poxpoy_beam_width
100
AcDbPolyline
 90
10
 70
0
43
0.0
 10
52.0326153642
 20
-61.0898422134
 10
45.7792125879
 20
-1798.00813191
 10
39.5258024632
 20
-3534.92642158
 10
33.2723850249
 20
-5271.84471123
 10
27.0189603075
 20
-7008.76300085
 10
20.7655283454
 20
-8745.68129044
 10
14.5120891727
 20
-10482.59958
 10
8.25864282324
 20
-12219.5178696
 10
2.00518933081
 20
-13956.4361591
 10
-4.24827127111
 20
-15693.3544486
  0
LWPOLYLINE
  5
2b9
330
1F
100
AcDbEntity
  8
poxpoy_beam_width
100
AcDbPolyline
 90
10
 70
0
43
0.0
 10
-2.04852493134
 20
-2.04761176808
 10
-1753.37566327
 20
1.81869644414
 10
-3504.70280162
 20
5.6849981458
 10
-5256.02993999
 20
9.55129342486
 10
-7007.35707838
 20
13.4175823677
 10
-8758.68421678
 20
17.2838650593
 10
-10510.0113552
 20
21.1501415829
 10
-12261.3384936
 20
25.0164120203
 10
-14012.6656321
 20
28.8826764522
 10
-15763.9927705
 20
32.7489349574
  0
LWPOLYLINE
  5
2ba
330
1F
100
AcDbEntity
  8
poxpoy_beam_width
100
AcDbPolyline
 90
10
 70
0
43
0.0
 10
73.0744915132
 20
73.0419173717
 10
-1686.67629265
 20
77.2721421972
 10
-3446.42707681
 20
81.5023735993
 10
-5206.17786094
 20
85.732611489
 10
-6965.92864506
 20
89.9628557784
 10
-8725.67942917
 20
94.1931063814
 10
-10485.4302133
 20
98.4233632134
 10
-12245.1809973
 20
102.653626191
 10
-14004.9317814
 20
106.883895234
 10
-15764.6825655
 20
111.11417026
  0
LWPOLYLINE
  5
2bb
330
1F
100
AcDbEntity
  8
poxpoy_beam_width
100
AcDbPolyline
 90
100
 70
0
43
0.0
 10
-4700.86106402
 20
286.768326726
 10
-4852.37129768
 20
288.093038754
 10
-5003.88153149
 20
289.417735303
 10
-5155.39176543
 20
290.742416997
 10
-5306.90199951
 20
292.067084429
 10
-5458.41223371
 20
293.391738163
 10
-5609.92246803
 20
294.716378729
 10
-5761.43270247
 20
296.041006634
 10
-5912.94293703
 20
297.365622358
 10
-6064.45317169
 20
298.690226356
 10
-6215.96340646
 20
300.014819063
 10
-6367.47364132
 20
301.33940089
 10
-6518.98387629
 20
302.663972232
 10
-6670.49411135
 20
303.988533462
 10
-6822.00434649
 20
305.313084936
 10
-6973.51458173
 20
306.637626995
 10
-7125.02481705
 20
307.962159964
 10
-7276.53505245
 20
309.286684151
 10
-7428.04528793
 20
310.611199854
 10
-7579.55552348
 20
311.935707355
 10
-7731.06575911
 20
313.260206923
 10
-7882.57599481
 20
314.584698819
 10
-8034.08623058
 20
315.909183289
 10
-8185.59646641
 20
317.233660571
 10
-8337.10670231
 20
318.558130891
 10
-8488.61693827
 20
319.882594468
 10
-8640.12717429
 20
321.207051509
 10
-8791.63741037
 20
322.531502216
 10
-8943.14764651
 20
323.85594678
 10
-9094.6578827
 20
325.180385385
 10
-9246.16811895
 20
326.504818209
 10
-9397.67835524
 20
327.829245423
 10
-9549.18859159
 20
329.153667188
 10
-9700.69882799
 20
330.478083664
 10
-9852.20906443
 20
331.802495001
 10
-10003.7193009
 20
333.126901344
 10
-10155.2295375
 20
334.451302835
 10
-10306.739774
 20
335.775699607
 10
-10458.2500107
 20
337.100091792
 10
-10609.7602473
 20
338.424479513
 10
-10761.270484
 20
339.748862893
 10
-10912.7807208
 20
341.073242047
 10
-11064.2909575
 20
342.397617087
 10
-11215.8011944
 20
343.721988123
 10
-11367.3114312
 20
345.046355259
 10
-11518.8216681
 20
346.370718596
 10
-11670.331905
 20
347.695078231
 10
-11821.842142
 20
349.019434259
 10
-11973.352379
 20
350.343786771
 10
-12124.862616
 20
351.668135854
 10
-12276.372853
 20
352.992481595
 10
-12427.8830901
 20
354.316824075
 10
-12579.3933272
 20
355.641163374
 10
-12730.9035644
 20
356.965499569
 10
-12882.4138015
 20
358.289832734
 10
-13033.9240387
 20
359.614162943
 10
-13185.434276
 20
360.938490265
 10
-13336.9445132
 20
362.262814768
 10
-13488.4547505
 20
363.587136517
 10
-13639.9649878
 20
364.911455576
 10
-13791.4752251
 20
366.235772007
 10
-13942.9854624
 20
367.56008587
 10
-14094.4956998
 20
368.884397222
 10
-14246.0059372
 20
370.208706121
 10
-14397.5161746
 20
371.53301262
 10
-14549.026412
 20
372.857316773
 10
-14700.5366495
 20
374.181618632
 10
-14852.046887
 20
375.505918245
 10
-15003.5571245
 20
376.830215662
 10
-15155.067362
 20
378.154510931
 10
-15306.5775995
 20
379.478804096
 10
-15458.0878371
 20
380.803095202
 10
-15609.5980747
 20
382.127384293
 10
-15761.1083123
 20
383.451671411
 10
-15912.6185499
 20
384.775956596
 10
-16064.1287875
 20
386.100239888
 10
-16215.6390251
 20
387.424521327
 10
-16367.1492628
 20
388.748800949
 10
-16518.6595005
 20
390.073078792
 10
-16670.1697382
 20
391.39735489
 10
-16821.6799759
 20
392.72162928
 10
-16973.1902136
 20
394.045901994
 10
-17124.7004514
 20
395.370173066
 10
-17276.2106891
 20
396.694442527
 10
-17427.7209269
 20
398.018710409
 10
-17579.2311647
 20
399.342976742
 10
-17730.7414025
 20
400.667241557
 10
-17882.2516403
 20
401.991504881
 10
-18033.7618781
 20
403.315766743
 10
-18185.272116
 20
404.64002717
 10
-18336.7823538
 20
405.96428619
 10
-18488.2925917
 20
407.288543828
 10
-18639.8028296
 20
408.612800111
 10
-18791.3130674
 20
409.937055061
 10
-18942.8233053
 20
411.261308705
 10
-19094.3335433
 20
412.585561066
 10
-19245.8437812
 20
413.909812166
 10
-19397.3540191
 20
415.234062029
 10
-19548.8642571
 20
416.558310676
 10
-19700.374495
 20
417.882558129
  0
LWPOLYLINE
  5
2bc
330
1F
100
AcDbEntity
  8
poxpoy_beam_width
100
AcDbPolyline
 90
100
 70
0
43
0.0
 10
-4700.91932265
 20
297.698228516
 10
-4852.42652727
 20
299.176386603
 10
-5003.93373175
 20
300.654560169
 10
-5155.4409361
 20
302.132748589
 10
-5306.94814031
 20
303.610951268
 10
-5458.45534439
 20
305.089167647
 10
-5609.96254835
 20
306.567397191
 10
-5761.4697522
 20
308.045639396
 10
-5912.97695593
 20
309.523893782
 10
-6064.48415955
 20
311.002159893
 10
-6215.99136307
 20
312.480437294
 10
-6367.49856649
 20
313.958725574
 10
-6519.00576981
 20
315.437024339
 10
-6670.51297304
 20
316.915333216
 10
-6822.02017618
 20
318.393651847
 10
-6973.52737923
 20
319.871979893
 10
-7125.03458219
 20
321.350317029
 10
-7276.54178508
 20
322.828662946
 10
-7428.04898789
 20
324.307017347
 10
-7579.55619062
 20
325.78537995
 10
-7731.06339327
 20
327.263750485
 10
-7882.57059586
 20
328.742128692
 10
-8034.07779838
 20
330.220514324
 10
-8185.58500083
 20
331.698907144
 10
-8337.09220322
 20
333.177306926
 10
-8488.59940554
 20
334.655713451
 10
-8640.10660781
 20
336.13412651
 10
-8791.61381001
 20
337.612545904
 10
-8943.12101216
 20
339.090971441
 10
-9094.62821425
 20
340.569402936
 10
-9246.13541629
 20
342.047840212
 10
-9397.64261828
 20
343.526283098
 10
-9549.14982022
 20
345.004731432
 10
-9700.65702211
 20
346.483185056
 10
-9852.16422395
 20
347.961643818
 10
-10003.6714257
 20
349.440107573
 10
-10155.1786275
 20
350.918576182
 10
-10306.6858292
 20
352.397049508
 10
-10458.1930309
 20
353.875527422
 10
-10609.7002325
 20
355.354009798
 10
-10761.2074341
 20
356.832496517
 10
-10912.7146356
 20
358.310987461
 10
-11064.2218371
 20
359.789482518
 10
-11215.7290386
 20
361.267981579
 10
-11367.23624
 20
362.746484541
 10
-11518.7434414
 20
364.224991301
 10
-11670.2506428
 20
365.703501763
 10
-11821.7578441
 20
367.182015832
 10
-11973.2650454
 20
368.660533418
 10
-12124.7722467
 20
370.139054431
 10
-12276.2794479
 20
371.617578787
 10
-12427.7866491
 20
373.096106403
 10
-12579.2938503
 20
374.574637201
 10
-12730.8010514
 20
376.053171102
 10
-12882.3082526
 20
377.531708033
 10
-13033.8154536
 20
379.01024792
 10
-13185.3226547
 20
380.488790694
 10
-13336.8298558
 20
381.967336288
 10
-13488.3370568
 20
383.445884634
 10
-13639.8442578
 20
384.924435671
 10
-13791.3514587
 20
386.402989336
 10
-13942.8586597
 20
387.881545568
 10
-14094.3658606
 20
389.360104311
 10
-14245.8730615
 20
390.838665508
 10
-14397.3802623
 20
392.317229104
 10
-14548.8874632
 20
393.795795046
 10
-14700.394664
 20
395.274363283
 10
-14851.9018648
 20
396.752933765
 10
-15003.4090656
 20
398.231506443
 10
-15154.9162664
 20
399.710081269
 10
-15306.4234671
 20
401.188658199
 10
-15457.9306679
 20
402.667237188
 10
-15609.4378686
 20
404.145818192
 10
-15760.9450693
 20
405.624401169
 10
-15912.4522699
 20
407.102986079
 10
-16063.9594706
 20
408.581572881
 10
-16215.4666712
 20
410.060161537
 10
-16366.9738719
 20
411.53875201
 10
-16518.4810725
 20
413.017344261
 10
-16669.9882731
 20
414.495938257
 10
-16821.4954736
 20
415.974533962
 10
-16973.0026742
 20
417.453131343
 10
-17124.5098747
 20
418.931730365
 10
-17276.0170753
 20
420.410330998
 10
-17427.5242758
 20
421.888933211
 10
-17579.0314763
 20
423.367536972
 10
-17730.5386768
 20
424.846142252
 10
-17882.0458772
 20
426.324749022
 10
-18033.5530777
 20
427.803357254
 10
-18185.0602781
 20
429.281966921
 10
-18336.5674786
 20
430.760577995
 10
-18488.074679
 20
432.239190451
 10
-18639.5818794
 20
433.717804263
 10
-18791.0890798
 20
435.196419406
 10
-18942.5962802
 20
436.675035856
 10
-19094.1034806
 20
438.153653589
 10
-19245.6106809
 20
439.632272583
 10
-19397.1178813
 20
441.110892814
 10
-19548.6250816
 20
442.589514261
 10
-19700.1322819
 20
444.068136901
  0
LWPOLYLINE
  5
2bd
330
1F
100
AcDbEntity
  8
poxpoy_beam_width
100
AcDbPolyline
 90
100
 70
0
43
0.0
 10
-4.24860104368
 20
-15693.3544444
 10
-1.82119995827
 20
-15581.1374641
 10
0.606201096798
 20
-15468.9204838
 10
3.03360212068
 20
-15356.7035035
 10
5.46100311252
 20
-15244.4865232
 10
7.88840407141
 20
-15132.2695429
 10
10.3158049964
 20
-15020.0525626
 10
12.7432058866
 20
-14907.8355823
 10
15.170606741
 20
-14795.618602
 10
17.5980075584
 20
-14683.4016217
 10
20.0254083379
 20
-14571.1846414
 10
22.4528090783
 20
-14458.9676611
 10
24.8802097785
 20
-14346.7506807
 10
27.3076104371
 20
-14234.5337004
 10
29.735011053
 20
-14122.3167201
 10
32.1624116249
 20
-14010.0997398
 10
34.5898121513
 20
-13897.8827595
 10
37.0172126309
 20
-13785.6657792
 10
39.4446130621
 20
-13673.4487989
 10
41.8720134434
 20
-13561.2318186
 10
44.2994137732
 20
-13449.0148382
 10
46.7268140497
 20
-13336.7978579
 10
49.1542142712
 20
-13224.5808776
 10
51.5816144359
 20
-13112.3638973
 10
54.0090145418
 20
-13000.146917
 10
56.4364145869
 20
-12887.9299366
 10
58.8638145691
 20
-12775.7129563
 10
61.2912144861
 20
-12663.495976
 10
63.7186143357
 20
-12551.2789957
 10
66.1460141155
 20
-12439.0620154
 10
68.5734138228
 20
-12326.845035
 10
71.0008134549
 20
-12214.6280547
 10
73.4282130092
 20
-12102.4110744
 10
75.8556124826
 20
-11990.194094
 10
78.2830118721
 20
-11877.9771137
 10
80.7104111743
 20
-11765.7601334
 10
83.1378103859
 20
-11653.543153
 10
85.5652095032
 20
-11541.3261727
 10
87.9926085225
 20
-11429.1091924
 10
90.4200074396
 20
-11316.892212
 10
92.8474062504
 20
-11204.6752317
 10
95.2748049505
 20
-11092.4582513
 10
97.7022035349
 20
-10980.241271
 10
100.129601999
 20
-10868.0242906
 10
102.557000337
 20
-10755.8073103
 10
104.984398544
 20
-10643.5903299
 10
107.411796613
 20
-10531.3733496
 10
109.839194538
 20
-10419.1563692
 10
112.266592313
 20
-10306.9393888
 10
114.693989931
 20
-10194.7224085
 10
117.121387383
 20
-10082.5054281
 10
119.548784662
 20
-9970.28844772
 10
121.976181759
 20
-9858.07146735
 10
124.403578666
 20
-9745.85448697
 10
126.830975371
 20
-9633.63750658
 10
129.258371864
 20
-9521.4205262
 10
131.685768135
 20
-9409.2035458
 10
134.113164171
 20
-9296.98656541
 10
136.54055996
 20
-9184.76958501
 10
138.967955486
 20
-9072.5526046
 10
141.395350736
 20
-8960.33562419
 10
143.822745693
 20
-8848.11864377
 10
146.250140339
 20
-8735.90166335
 10
148.677534656
 20
-8623.68468292
 10
151.104928623
 20
-8511.46770249
 10
153.532322218
 20
-8399.25072205
 10
155.959715416
 20
-8287.0337416
 10
158.387108192
 20
-8174.81676114
 10
160.814500517
 20
-8062.59978068
 10
163.241892359
 20
-7950.3828002
 10
165.669283685
 20
-7838.16581972
 10
168.096674457
 20
-7725.94883922
 10
170.524064633
 20
-7613.73185872
 10
172.951454167
 20
-7501.5148782
 10
175.378843011
 20
-7389.29789767
 10
177.806231107
 20
-7277.08091712
 10
180.233618395
 20
-7164.86393656
 10
182.661004804
 20
-7052.64695599
 10
185.08839026
 20
-6940.42997539
 10
187.515774674
 20
-6828.21299478
 10
189.943157951
 20
-6715.99601414
 10
192.370539981
 20
-6603.77903348
 10
194.797920641
 20
-6491.5620528
 10
197.225299791
 20
-6379.34507209
 10
199.652677269
 20
-6267.12809135
 10
202.080052891
 20
-6154.91111057
 10
204.507426447
 20
-6042.69412975
 10
206.93479769
 20
-5930.47714889
 10
209.362166334
 20
-5818.26016798
 10
211.789532044
 20
-5706.04318702
 10
214.216894425
 20
-5593.82620599
 10
216.644253006
 20
-5481.60922489
 10
219.071607225
 20
-5369.39224371
 10
221.498956403
 20
-5257.17526244
 10
223.92629971
 20
-5144.95828106
 10
226.353636127
 20
-5032.74129954
 10
228.780964381
 20
-4920.52431788
 10
231.208282869
 20
-4808.30733603
 10
233.635589535
 20
-4696.09035396
 10
236.062881704
 20
-4583.87337162
  0
LWPOLYLINE
  5
2be
330
1F
100
AcDbEntity
  8
poxpoy_beam_width
100
AcDbPolyline
 90
100
 70
0
43
0.0
 10
68.8871993338
 20
-15694.169682
 10
70.6630376184
 20
-15581.9472125
 10
72.4388759333
 20
-15469.7247431
 10
74.2147142794
 20
-15357.5022736
 10
75.9905526576
 20
-15245.2798042
 10
77.7663910687
 20
-15133.0573347
 10
79.5422295137
 20
-15020.8348653
 10
81.3180679935
 20
-14908.6123958
 10
83.0939065091
 20
-14796.3899263
 10
84.8697450617
 20
-14684.1674569
 10
86.6455836522
 20
-14571.9449874
 10
88.4214222817
 20
-14459.722518
 10
90.1972609516
 20
-14347.5000485
 10
91.9730996629
 20
-14235.2775791
 10
93.748938417
 20
-14123.0551096
 10
95.5247772151
 20
-14010.8326402
 10
97.3006160587
 20
-13898.6101708
 10
99.0764549491
 20
-13786.3877013
 10
100.852293888
 20
-13674.1652319
 10
102.628132877
 20
-13561.9427624
 10
104.403971917
 20
-13449.720293
 10
106.17981101
 20
-13337.4978235
 10
107.955650159
 20
-13225.2753541
 10
109.731489364
 20
-13113.0528846
 10
111.507328628
 20
-13000.8304152
 10
113.283167953
 20
-12888.6079458
 10
115.059007341
 20
-12776.3854763
 10
116.834846794
 20
-12664.1630069
 10
118.610686314
 20
-12551.9405375
 10
120.386525905
 20
-12439.718068
 10
122.162365567
 20
-12327.4955986
 10
123.938205305
 20
-12215.2731292
 10
125.714045121
 20
-12103.0506597
 10
127.489885017
 20
-11990.8281903
 10
129.265724998
 20
-11878.6057209
 10
131.041565066
 20
-11766.3832515
 10
132.817405224
 20
-11654.160782
 10
134.593245477
 20
-11541.9383126
 10
136.369085827
 20
-11429.7158432
 10
138.14492628
 20
-11317.4933738
 10
139.920766839
 20
-11205.2709044
 10
141.696607509
 20
-11093.048435
 10
143.472448295
 20
-10980.8259656
 10
145.248289201
 20
-10868.6034961
 10
147.024130233
 20
-10756.3810267
 10
148.799971396
 20
-10644.1585573
 10
150.575812697
 20
-10531.9360879
 10
152.351654141
 20
-10419.7136185
 10
154.127495736
 20
-10307.4911491
 10
155.903337489
 20
-10195.2686797
 10
157.679179406
 20
-10083.0462104
 10
159.455021497
 20
-9970.82374097
 10
161.23086377
 20
-9858.60127159
 10
163.006706234
 20
-9746.37880221
 10
164.782548899
 20
-9634.15633283
 10
166.558391775
 20
-9521.93386346
 10
168.334234874
 20
-9409.71139409
 10
170.110078208
 20
-9297.48892473
 10
171.885921789
 20
-9185.26645537
 10
173.661765633
 20
-9073.04398602
 10
175.437609753
 20
-8960.82151667
 10
177.213454166
 20
-8848.59904733
 10
178.98929889
 20
-8736.37657799
 10
180.765143943
 20
-8624.15410866
 10
182.540989346
 20
-8511.93163934
 10
184.316835121
 20
-8399.70917002
 10
186.092681292
 20
-8287.48670071
 10
187.868527886
 20
-8175.26423141
 10
189.64437493
 20
-8063.04176212
 10
191.420222458
 20
-7950.81929283
 10
193.196070502
 20
-7838.59682356
 10
194.9719191
 20
-7726.37435429
 10
196.747768293
 20
-7614.15188504
 10
198.523618128
 20
-7501.9294158
 10
200.299468654
 20
-7389.70694657
 10
202.075319927
 20
-7277.48447736
 10
203.851172009
 20
-7165.26200816
 10
205.627024969
 20
-7053.03953898
 10
207.402878883
 20
-6940.81706981
 10
209.178733837
 20
-6828.59460067
 10
210.954589929
 20
-6716.37213154
 10
212.730447268
 20
-6604.14966244
 10
214.506305977
 20
-6491.92719337
 10
216.282166196
 20
-6379.70472432
 10
218.058028086
 20
-6267.48225531
 10
219.833891832
 20
-6155.25978632
 10
221.609757644
 20
-6043.03731738
 10
223.385625768
 20
-5930.81484848
 10
225.161496491
 20
-5818.59237963
 10
226.937370148
 20
-5706.36991084
 10
228.713247133
 20
-5594.14744211
 10
230.489127917
 20
-5481.92497345
 10
232.265013063
 20
-5369.70250487
 10
234.040903249
 20
-5257.48003638
 10
235.816799304
 20
-5145.25756801
 10
237.592702248
 20
-5033.03509976
 10
239.368613352
 20
-4920.81263167
 10
241.14453422
 20
-4808.59016375
 10
242.920466907
 20
-4696.36769607
 10
244.696414086
 20
-4584.14522865
  0
LWPOLYLINE
  5
2bf
330
1F
100
AcDbEntity
  8
poxpoy_beam_width
100
AcDbPolyline
 90
10
 70
0
43
0.0
 10
244.696343569
 20
-4584.14522653
 10
190.093831278
 20
-5817.57975554
 10
135.493504266
 20
-7051.01438127
 10
80.8953760679
 20
-8284.44910432
 10
26.2994569274
 20
-9517.88392514
 10
-28.2942462775
 20
-10751.318844
 10
-82.8857300883
 20
-11984.7538612
 10
-137.474994493
 20
-13218.1889765
 10
-192.062042926
 20
-14451.62419
 10
-246.64688224
 20
-15685.0595012
  0
LWPOLYLINE
  5
2c0
330
1F
100
AcDbEntity
  8
poxpoy_beam_width
100
AcDbPolyline
 90
10
 70
0
43
0.0
 10
236.062793028
 20
-4583.8733687
 10
181.482894187
 20
-5817.29664739
 10
126.900810108
 20
-7050.71982937
 10
72.3165272585
 20
-8284.14291403
 10
17.7300353945
 20
-9517.56590092
 10
-36.8586723614
 20
-10750.9887897
 10
-91.4495994674
 20
-11984.4115803
 10
-146.042745936
 20
-13217.8342727
 10
-200.638108332
 20
-14451.256867
 10
-255.235679802
 20
-15684.6793635
  0
ENDSEC
  0
SECTION
  2
OBJECTS
  0
DICTIONARY
  5
C
330
0
100
AcDbDictionary
281
     1
  3
ACAD_GROUP
350
D
  3
ACAD_LAYOUT
350
1A
  3
ACAD_MATERIAL
350
3B
  3
ACAD_MLEADERSTYLE
350
6E
  3
ACAD_MLINESTYLE
350
17
  3
ACAD_PLOTSETTINGS
350
19
  3
ACAD_PLOTSTYLENAME
350
E
  3
ACAD_TABLESTYLE
350
6D
  3
ACAD_VISUALSTYLE
350
2A
  0
SUN
  5
3F
330
29
100
AcDbSun
 90
        1
290
     0
 63
     7
421
 16777215
 40
1.0
291
     1
 91
  2455826
 92
 54000000
292
     0
 70
     2
 71
   256
280
     1
  0
DICTIONARY
  5
D
102
{ACAD_REACTORS
330
C
102
}
330
C
100
AcDbDictionary
281
     1
  0
DICTIONARY
  5
1A
102
{ACAD_REACTORS
330
C
102
}
330
C
100
AcDbDictionary
281
     1
  3
Layout1
350
1E
  3
Layout2
350
26
  3
Model
350
22
  0
DICTIONARY
  5
3B
102
{ACAD_REACTORS
330
C
102
}
330
C
100
AcDbDictionary
281
     1
  3
ByBlock
350
3D
  3
ByLayer
350
3C
  3
Global
350
3E
  0
DICTIONARY
  5
6E
102
{ACAD_REACTORS
330
C
102
}
330
C
100
AcDbDictionary
281
     1
  0
DICTIONARY
  5
17
102
{ACAD_REACTORS
330
C
102
}
330
C
100
AcDbDictionary
281
     1
  3
Standard
350
18
  0
DICTIONARY
  5
19
102
{ACAD_REACTORS
330
C
102
}
330
C
100
AcDbDictionary
281
     1
  0
ACDBDICTIONARYWDFLT
  5
E
102
{ACAD_REACTORS
330
C
102
}
330
C
100
AcDbDictionary
281
     1
  3
Normal
350
F
100
AcDbDictionaryWithDefault
340
F
  0
DICTIONARY
  5
6D
102
{ACAD_REACTORS
330
C
102
}
330
C
100
AcDbDictionary
281
     1
  0
DICTIONARY
  5
2A
102
{ACAD_REACTORS
330
C
102
}
330
C
100
AcDbDictionary
281
     1
  3
2dWireframe
350
2F
  3
3D Hidden
350
31
  3
3dWireframe
350
30
  3
Basic
350
32
  3
Brighten
350
36
  3
ColorChange
350
3A
  3
Conceptual
350
34
  3
Dim
350
35
  3
Facepattern
350
39
  3
Flat
350
2B
  3
FlatWithEdges
350
2C
  3
Gouraud
350
2D
  3
GouraudWithEdges
350
2E
  3
Linepattern
350
38
  3
Realistic
350
33
  3
Thicken
350
37
  0
LAYOUT
  5
1E
102
{ACAD_REACTORS
330
1A
102
}
330
1A
100
AcDbPlotSettings
  1

  2
none_device
  4

  6

 40
0.0
 41
0.0
 42
0.0
 43
0.0
 44
0.0
 45
0.0
 46
0.0
 47
0.0
 48
0.0
 49
0.0
140
0.0
141
0.0
142
1.0
143
1.0
 70
   688
 72
     0
 73
     0
 74
     5
  7

 75
    16
 76
     0
 77
     2
 78
   300
147
1.0
148
0.0
149
0.0
100
AcDbLayout
  1
Layout1
 70
     1
 71
     1
 10
0.0
 20
0.0
 11
420.0
 21
297.0
 12
0.0
 22
0.0
 32
0.0
 14
1.000000000000000E+20
 24
1.000000000000000E+20
 34
1.000000000000000E+20
 15
-1.000000000000000E+20
 25
-1.000000000000000E+20
 35
-1.000000000000000E+20
146
0.0
 13
0.0
 23
0.0
 33
0.0
 16
1.0
 26
0.0
 36
0.0
 17
0.0
 27
1.0
 37
0.0
 76
     0
330
1B
  0
LAYOUT
  5
26
102
{ACAD_REACTORS
330
1A
102
}
330
1A
100
AcDbPlotSettings
  1

  2
none_device
  4

  6

 40
0.0
 41
0.0
 42
0.0
 43
0.0
 44
0.0
 45
0.0
 46
0.0
 47
0.0
 48
0.0
 49
0.0
140
0.0
141
0.0
142
1.0
143
1.0
 70
   688
 72
     0
 73
     0
 74
     5
  7

 75
    16
 76
     0
 77
     2
 78
   300
147
1.0
148
0.0
149
0.0
100
AcDbLayout
  1
Layout2
 70
     1
 71
     2
 10
0.0
 20
0.0
 11
0.0
 21
0.0
 12
0.0
 22
0.0
 32
0.0
 14
0.0
 24
0.0
 34
0.0
 15
0.0
 25
0.0
 35
0.0
146
0.0
 13
0.0
 23
0.0
 33
0.0
 16
1.0
 26
0.0
 36
0.0
 17
0.0
 27
1.0
 37
0.0
 76
     0
330
23
  0
LAYOUT
  5
22
102
{ACAD_REACTORS
330
1A
102
}
330
1A
100
AcDbPlotSettings
  1

  2
none_device
  4

  6

 40
0.0
 41
0.0
 42
0.0
 43
0.0
 44
0.0
 45
0.0
 46
0.0
 47
0.0
 48
0.0
 49
0.0
140
0.0
141
0.0
142
1.0
143
1.0
 70
  1712
 72
     0
 73
     0
 74
     0
  7

 75
     0
 76
     0
 77
     2
 78
   300
147
1.0
148
0.0
149
0.0
100
AcDbLayout
  1
Model
 70
     1
 71
     0
 10
0.0
 20
0.0
 11
420.0
 21
297.0
 12
0.0
 22
0.0
 32
0.0
 14
1.0
 24
0.0
 34
0.0
 15
73.0
 25
41.0
 35
0.0
146
0.0
 13
0.0
 23
0.0
 33
0.0
 16
1.0
 26
0.0
 36
0.0
 17
0.0
 27
1.0
 37
0.0
 76
     0
330
1F
331
29
  0
MATERIAL
  5
3D
102
{ACAD_REACTORS
330
3B
102
}
330
3B
100
AcDbMaterial
  1
ByBlock
 72
     1
 94
      127
  0
MATERIAL
  5
3C
102
{ACAD_REACTORS
330
3B
102
}
330
3B
100
AcDbMaterial
  1
ByLayer
 72
     1
 94
      127
  0
MATERIAL
  5
3E
102
{ACAD_REACTORS
330
3B
102
}
330
3B
100
AcDbMaterial
  1
Global
 72
     1
 94
      127
  0
MLINESTYLE
  5
18
102
{ACAD_REACTORS
330
17
102
}
330
17
100
AcDbMlineStyle
  2
Standard
 70
     0
  3

 62
   256
 51
90.0
 52
90.0
 71
     2
 49
0.5
 62
   256
  6
BYLAYER
 49
-0.5
 62
   256
  6
BYLAYER
  0
ACDBPLACEHOLDER
  5
F
102
{ACAD_REACTORS
330
E
102
}
330
E
  0
VISUALSTYLE
  5
2F
102
{ACAD_REACTORS
330
2A
102
}
330
2A
100
AcDbVisualStyle
  2
2dWireframe
 70
     4
177
     2
291
     0
 71
     0
176
     1
 72
     2
176
     1
 73
     0
176
     1
 90
        0
176
     1
 40
-0.6
176
     1
 41
-30.0
176
     1
 62
     5
 63
     7
421
 16777215
176
     1
 74
     1
176
     1
 91
        4
176
     1
 64
     7
176
     1
 65
   257
176
     1
 75
     1
176
     1
175
     1
176
     1
 42
1.0
176
     1
 92
        0
176
     1
 66
   257
176
     1
 43
1.0
176
     1
 76
     1
176
     1
 77
     6
176
     1
 78
     2
176
     1
 67
     7
176
     1
 79
     5
176
     1
170
     0
176
     1
171
     0
176
     1
290
     0
176
     1
 93
        1
176
     1
 44
0.0
176
     1
173
     0
176
     1
  0
VISUALSTYLE
  5
31
102
{ACAD_REACTORS
330
2A
102
}
330
2A
100
AcDbVisualStyle
  2
3D Hidden
 70
     6
177
     2
291
     0
 71
     1
176
     1
 72
     2
176
     1
 73
     2
176
     1
 90
        0
176
     1
 40
-0.6
176
     1
 41
-30.0
176
     1
 62
     5
 63
     7
421
 16777215
176
     1
 74
     2
176
     1
 91
        2
176
     1
 64
     7
176
     1
 65
   257
176
     1
 75
     2
176
     1
175
     1
176
     1
 42
40.0
176
     1
 92
        0
176
     1
 66
   257
176
     1
 43
1.0
176
     1
 76
     1
176
     1
 77
     6
176
     1
 78
     2
176
     1
 67
     7
176
     1
 79
     3
176
     1
170
     0
176
     1
171
     0
176
     1
290
     0
176
     1
 93
        1
176
     1
 44
0.0
176
     1
173
     0
176
     1
  0
VISUALSTYLE
  5
30
102
{ACAD_REACTORS
330
2A
102
}
330
2A
100
AcDbVisualStyle
  2
3dWireframe
 70
     5
177
     2
291
     0
 71
     0
176
     1
 72
     2
176
     1
 73
     0
176
     1
 90
        0
176
     1
 40
-0.6
176
     1
 41
-30.0
176
     1
 62
     5
 63
     7
421
 16777215
176
     1
 74
     1
176
     1
 91
        4
176
     1
 64
     7
176
     1
 65
   257
176
     1
 75
     1
176
     1
175
     1
176
     1
 42
1.0
176
     1
 92
        0
176
     1
 66
   257
176
     1
 43
1.0
176
     1
 76
     1
176
     1
 77
     6
176
     1
 78
     2
176
     1
 67
     7
176
     1
 79
     5
176
     1
170
     0
176
     1
171
     0
176
     1
290
     0
176
     1
 93
        1
176
     1
 44
0.0
176
     1
173
     0
176
     1
  0
VISUALSTYLE
  5
32
102
{ACAD_REACTORS
330
2A
102
}
330
2A
100
AcDbVisualStyle
  2
Basic
 70
     7
177
     2
291
     1
 71
     1
176
     1
 72
     0
176
     1
 73
     1
176
     1
 90
        0
176
     1
 40
-0.6
176
     1
 41
-30.0
176
     1
 62
     5
 63
     7
421
 16777215
176
     1
 74
     0
176
     1
 91
        4
176
     1
 64
     7
176
     1
 65
   257
176
     1
 75
     1
176
     1
175
     1
176
     1
 42
1.0
176
     1
 92
        8
176
     1
 66
     7
176
     1
 43
1.0
176
     1
 76
     1
176
     1
 77
     6
176
     1
 78
     2
176
     1
 67
     7
176
     1
 79
     5
176
     1
170
     0
176
     1
171
     0
176
     1
290
     0
176
     1
 93
        1
176
     1
 44
0.0
176
     1
173
     0
176
     1
  0
VISUALSTYLE
  5
36
102
{ACAD_REACTORS
330
2A
102
}
330
2A
100
AcDbVisualStyle
  2
Brighten
 70
    12
177
     2
291
     1
 71
     2
176
     1
 72
     2
176
     1
 73
     0
176
     1
 90
        0
176
     1
 40
-0.6
176
     1
 41
-30.0
176
     1
 62
     5
 63
     7
421
 16777215
176
     1
 74
     1
176
     1
 91
        4
176
     1
 64
     7
176
     1
 65
   257
176
     1
 75
     1
176
     1
175
     1
176
     1
 42
1.0
176
     1
 92
        8
176
     1
 66
     7
176
     1
 43
1.0
176
     1
 76
     1
176
     1
 77
     6
176
     1
 78
     2
176
     1
 67
     7
176
     1
 79
     5
176
     1
170
     0
176
     1
171
     0
176
     1
290
     0
176
     1
 93
        1
176
     1
 44
50.0
176
     1
173
     0
176
     1
  0
VISUALSTYLE
  5
3A
102
{ACAD_REACTORS
330
2A
102
}
330
2A
100
AcDbVisualStyle
  2
ColorChange
 70
    16
177
     2
291
     1
 71
     2
176
     1
 72
     2
176
     1
 73
     3
176
     1
 90
        0
176
     1
 40
-0.6
176
     1
 41
-30.0
176
     1
 62
     5
 63
     8
421
  8421504
176
     1
 74
     1
176
     1
 91
        4
176
     1
 64
     7
176
     1
 65
   257
176
     1
 75
     1
176
     1
175
     1
176
     1
 42
1.0
176
     1
 92
        8
176
     1
 66
     8
424
  8421504
176
     1
 43
1.0
176
     1
 76
     1
176
     1
 77
     6
176
     1
 78
     2
176
     1
 67
     7
176
     1
 79
     5
176
     1
170
     0
176
     1
171
     0
176
     1
290
     0
176
     1
 93
        1
176
     1
 44
0.0
176
     1
173
     0
176
     1
  0
VISUALSTYLE
  5
34
102
{ACAD_REACTORS
330
2A
102
}
330
2A
100
AcDbVisualStyle
  2
Conceptual
 70
     9
177
     2
291
     0
 71
     3
176
     1
 72
     2
176
     1
 73
     0
176
     1
 90
        0
176
     1
 40
-0.6
176
     1
 41
-30.0
176
     1
 62
     5
 63
     7
421
 16777215
176
     1
 74
     2
176
     1
 91
        2
176
     1
 64
     7
176
     1
 65
   257
176
     1
 75
     1
176
     1
175
     1
176
     1
 42
40.0
176
     1
 92
        8
176
     1
 66
     7
176
     1
 43
1.0
176
     1
 76
     1
176
     1
 77
     6
176
     1
 78
     2
176
     1
 67
     7
176
     1
 79
     3
176
     1
170
     0
176
     1
171
     0
176
     1
290
     0
176
     1
 93
        1
176
     1
 44
0.0
176
     1
173
     0
176
     1
  0
VISUALSTYLE
  5
35
102
{ACAD_REACTORS
330
2A
102
}
330
2A
100
AcDbVisualStyle
  2
Dim
 70
    11
177
     2
291
     1
 71
     2
176
     1
 72
     2
176
     1
 73
     0
176
     1
 90
        0
176
     1
 40
-0.6
176
     1
 41
-30.0
176
     1
 62
     5
 63
     7
421
 16777215
176
     1
 74
     1
176
     1
 91
        4
176
     1
 64
     7
176
     1
 65
   257
176
     1
 75
     1
176
     1
175
     1
176
     1
 42
1.0
176
     1
 92
        8
176
     1
 66
     7
176
     1
 43
1.0
176
     1
 76
     1
176
     1
 77
     6
176
     1
 78
     2
176
     1
 67
     7
176
     1
 79
     5
176
     1
170
     0
176
     1
171
     0
176
     1
290
     0
176
     1
 93
        1
176
     1
 44
-50.0
176
     1
173
     0
176
     1
  0
VISUALSTYLE
  5
39
102
{ACAD_REACTORS
330
2A
102
}
330
2A
100
AcDbVisualStyle
  2
Facepattern
 70
    15
177
     2
291
     1
 71
     2
176
     1
 72
     2
176
     1
 73
     0
176
     1
 90
        0
176
     1
 40
-0.6
176
     1
 41
-30.0
176
     1
 62
     5
 63
     7
421
 16777215
176
     1
 74
     1
176
     1
 91
        4
176
     1
 64
     7
176
     1
 65
   257
176
     1
 75
     1
176
     1
175
     1
176
     1
 42
1.0
176
     1
 92
        8
176
     1
 66
     7
176
     1
 43
1.0
176
     1
 76
     1
176
     1
 77
     6
176
     1
 78
     2
176
     1
 67
     7
176
     1
 79
     5
176
     1
170
     0
176
     1
171
     0
176
     1
290
     0
176
     1
 93
        1
176
     1
 44
0.0
176
     1
173
     0
176
     1
  0
VISUALSTYLE
  5
2B
102
{ACAD_REACTORS
330
2A
102
}
330
2A
100
AcDbVisualStyle
  2
Flat
 70
     0
177
     2
291
     1
 71
     2
176
     1
 72
     1
176
     1
 73
     1
176
     1
 90
        2
176
     1
 40
-0.6
176
     1
 41
30.0
176
     1
 62
     5
 63
     7
421
 16777215
176
     1
 74
     0
176
     1
 91
        4
176
     1
 64
     7
176
     1
 65
   257
176
     1
 75
     1
176
     1
175
     1
176
     1
 42
1.0
176
     1
 92
        8
176
     1
 66
     7
176
     1
 43
1.0
176
     1
 76
     1
176
     1
 77
     6
176
     1
 78
     2
176
     1
 67
     7
176
     1
 79
     5
176
     1
170
     0
176
     1
171
     0
176
     1
290
     0
176
     1
 93
       13
176
     1
 44
0.0
176
     1
173
     0
176
     1
  0
VISUALSTYLE
  5
2C
102
{ACAD_REACTORS
330
2A
102
}
330
2A
100
AcDbVisualStyle
  2
FlatWithEdges
 70
     1
177
     2
291
     1
 71
     2
176
     1
 72
     1
176
     1
 73
     1
176
     1
 90
        2
176
     1
 40
-0.6
176
     1
 41
30.0
176
     1
 62
     5
 63
     7
421
 16777215
176
     1
 74
     1
176
     1
 91
        4
176
     1
 64
     7
176
     1
 65
   257
176
     1
 75
     1
176
     1
175
     1
176
     1
 42
1.0
176
     1
 92
        0
176
     1
 66
   257
176
     1
 43
1.0
176
     1
 76
     1
176
     1
 77
     6
176
     1
 78
     2
176
     1
 67
     7
176
     1
 79
     5
176
     1
170
     0
176
     1
171
     0
176
     1
290
     0
176
     1
 93
       13
176
     1
 44
0.0
176
     1
173
     0
176
     1
  0
VISUALSTYLE
  5
2D
102
{ACAD_REACTORS
330
2A
102
}
330
2A
100
AcDbVisualStyle
  2
Gouraud
 70
     2
177
     2
291
     1
 71
     2
176
     1
 72
     2
176
     1
 73
     1
176
     1
 90
        2
176
     1
 40
-0.6
176
     1
 41
30.0
176
     1
 62
     5
 63
     7
421
 16777215
176
     1
 74
     0
176
     1
 91
        4
176
     1
 64
     7
176
     1
 65
   257
176
     1
 75
     1
176
     1
175
     1
176
     1
 42
1.0
176
     1
 92
        0
176
     1
 66
     7
176
     1
 43
1.0
176
     1
 76
     1
176
     1
 77
     6
176
     1
 78
     2
176
     1
 67
     7
176
     1
 79
     5
176
     1
170
     0
176
     1
171
     0
176
     1
290
     0
176
     1
 93
       13
176
     1
 44
0.0
176
     1
173
     0
176
     1
  0
VISUALSTYLE
  5
2E
102
{ACAD_REACTORS
330
2A
102
}
330
2A
100
AcDbVisualStyle
  2
GouraudWithEdges
 70
     3
177
     2
291
     1
 71
     2
176
     1
 72
     2
176
     1
 73
     1
176
     1
 90
        2
176
     1
 40
-0.6
176
     1
 41
30.0
176
     1
 62
     5
 63
     7
421
 16777215
176
     1
 74
     1
176
     1
 91
        4
176
     1
 64
     7
176
     1
 65
   257
176
     1
 75
     1
176
     1
175
     1
176
     1
 42
1.0
176
     1
 92
        0
176
     1
 66
   257
176
     1
 43
1.0
176
     1
 76
     1
176
     1
 77
     6
176
     1
 78
     2
176
     1
 67
     7
176
     1
 79
     5
176
     1
170
     0
176
     1
171
     0
176
     1
290
     0
176
     1
 93
       13
176
     1
 44
0.0
176
     1
173
     0
176
     1
  0
VISUALSTYLE
  5
38
102
{ACAD_REACTORS
330
2A
102
}
330
2A
100
AcDbVisualStyle
  2
Linepattern
 70
    14
177
     2
291
     1
 71
     2
176
     1
 72
     2
176
     1
 73
     0
176
     1
 90
        0
176
     1
 40
-0.6
176
     1
 41
-30.0
176
     1
 62
     5
 63
     7
421
 16777215
176
     1
 74
     1
176
     1
 91
        4
176
     1
 64
     7
176
     1
 65
   257
176
     1
 75
     7
176
     1
175
     7
176
     1
 42
1.0
176
     1
 92
        8
176
     1
 66
     7
176
     1
 43
1.0
176
     1
 76
     1
176
     1
 77
     6
176
     1
 78
     2
176
     1
 67
     7
176
     1
 79
     5
176
     1
170
     0
176
     1
171
     0
176
     1
290
     0
176
     1
 93
        1
176
     1
 44
0.0
176
     1
173
     0
176
     1
  0
VISUALSTYLE
  5
33
102
{ACAD_REACTORS
330
2A
102
}
330
2A
100
AcDbVisualStyle
  2
Realistic
 70
     8
177
     2
291
     0
 71
     2
176
     1
 72
     2
176
     1
 73
     0
176
     1
 90
        0
176
     1
 40
-0.6
176
     1
 41
-30.0
176
     1
 62
     5
 63
     7
421
 16777215
176
     1
 74
     1
176
     1
 91
        0
176
     1
 64
     7
176
     1
 65
   257
176
     1
 75
     1
176
     1
175
     1
176
     1
 42
1.0
176
     1
 92
        8
176
     1
 66
     8
424
  7895160
176
     1
 43
1.0
176
     1
 76
     1
176
     1
 77
     6
176
     1
 78
     2
176
     1
 67
     7
176
     1
 79
     5
176
     1
170
     0
176
     1
171
     0
176
     1
290
     0
176
     1
 93
       13
176
     1
 44
0.0
176
     1
173
     0
176
     1
  0
VISUALSTYLE
  5
37
102
{ACAD_REACTORS
330
2A
102
}
330
2A
100
AcDbVisualStyle
  2
Thicken
 70
    13
177
     2
291
     1
 71
     2
176
     1
 72
     2
176
     1
 73
     0
176
     1
 90
        0
176
     1
 40
-0.6
176
     1
 41
-30.0
176
     1
 62
     5
 63
     7
421
 16777215
176
     1
 74
     1
176
     1
 91
        4
176
     1
 64
     7
176
     1
 65
   257
176
     1
 75
     1
176
     1
175
     1
176
     1
 42
1.0
176
     1
 92
       12
176
     1
 66
     7
176
     1
 43
1.0
176
     1
 76
     1
176
     1
 77
     6
176
     1
 78
     2
176
     1
 67
     7
176
     1
 79
     5
176
     1
170
     0
176
     1
171
     0
176
     1
290
     0
176
     1
 93
        1
176
     1
 44
0.0
176
     1
173
     0
176
     1
  0
ENDSEC
0
EOF
