0
SECTION
2
HEADER
9
$ACADVER
1
AC1009
9
$INSBASE
10
0.0
20
0.0
30
0.0
9
$EXTMIN
10
0.0
20
0.0
9
$EXTMAX
10
0.0
20
0.0
9
$INSUNITS
70
6
0
ENDSEC
0
SECTION
2
TABLES
0
TABLE
2
LTYPE
70
1
0
LTYPE
2
CONTINUOUS
70
64
3
Solid line
72
65
73
0
40
0.0
0
ENDTAB
0
TABLE
2
LAYER
70
9
0
LAYER
2
PYDXF
70
64
62
7
6
continuous
0
LAYER
2
MAIN_BEAM
70
64
62
1
6
continuous
0
LAYER
2
MAIN_BEAM_WIDTH
70
64
62
2
6
continuous
0
LAYER
2
AUX_BEAM
70
64
62
3
6
continuous
0
LAYER
2
AUX_BEAM_WIDTH
70
64
62
4
6
continuous
0
LAYER
2
POX
70
64
62
5
6
continuous
0
LAYER
2
POX_WIDTH
70
64
62
6
6
continuous
0
LAYER
2
POY
70
64
62
7
6
continuous
0
LAYER
2
POY_WIDTH
70
64
62
8
6
continuous
0
ENDTAB
0
TABLE
2
STYLE
70
1
0
STYLE
2
STANDARD
70
0
40
0
41
40
50
50
71
0
42
1
3
ARIAL.TTF
4

0
ENDTAB
0
TABLE
2
VIEW
70
0
0
ENDTAB
0
ENDSEC
0
SECTION
2
BLOCKS
0
ENDSEC
0
SECTION
2
ENTITIES
0
CIRCLE
8
Vacuum
10
-10.955302607
20
0.392239023207
40
0.75
0
LINE
8
Vacuum
10
-11.805302607
20
0.624739023207
30
0
11
-10.105302607
21
0.624739023207
31
0
0
LINE
8
Vacuum
10
-10.105302607
20
0.624739023207
30
0
11
-10.105302607
21
-0.160260976793
31
0
0
LINE
8
Vacuum
10
-10.105302607
20
-0.160260976793
30
0
11
-11.805302607
21
-0.160260976793
31
0
0
LINE
8
Vacuum
10
-11.805302607
20
-0.160260976793
30
0
11
-11.805302607
21
0.624739023207
31
0
0
CIRCLE
8
Vacuum
10
-4.12836359009
20
0.267764259343
40
0.75
0
LINE
8
Vacuum
10
-4.97836359009
20
0.500264259343
30
0
11
-3.27836359009
21
0.500264259343
31
0
0
LINE
8
Vacuum
10
-3.27836359009
20
0.500264259343
30
0
11
-3.27836359009
21
-0.284735740657
31
0
0
LINE
8
Vacuum
10
-3.27836359009
20
-0.284735740657
30
0
11
-4.97836359009
21
-0.284735740657
31
0
0
LINE
8
Vacuum
10
-4.97836359009
20
-0.284735740657
30
0
11
-4.97836359009
21
0.500264259343
31
0
0
CIRCLE
8
Vacuum
10
-19.5717148842
20
0.0147362371516
40
0.75
0
LINE
8
Vacuum
10
-20.4217148842
20
0.627236237152
30
0
11
-18.7217148842
21
0.627236237152
31
0
0
LINE
8
Vacuum
10
-18.7217148842
20
0.627236237152
30
0
11
-18.7217148842
21
-0.157763762848
31
0
0
LINE
8
Vacuum
10
-18.7217148842
20
-0.157763762848
30
0
11
-20.4217148842
21
-0.157763762848
31
0
0
LINE
8
Vacuum
10
-20.4217148842
20
-0.157763762848
30
0
11
-20.4217148842
21
0.627236237152
31
0
0
LINE
8
Vacuum
10
-18.7217148842
20
0.627236237152
11
-11.805302607
21
0.624739023207
0
LINE
8
Vacuum
10
-18.7217148842
20
-0.157763762848
11
-11.805302607
21
-0.160260976793
0
LINE
8
Vacuum
10
-10.105302607
20
0.624739023207
11
-4.97836359009
21
0.500264259343
0
LINE
8
Vacuum
10
-10.105302607
20
-0.160260976793
11
-4.97836359009
21
-0.284735740657
0
CIRCLE
8
Vacuum
10
0.0282779650527
20
-0.0282905760365
40
0.75
0
LINE
8
Vacuum
10
-0.821722034947
20
0.364209423964
30
0
11
0.878277965053
21
0.364209423964
31
0
0
LINE
8
Vacuum
10
0.878277965053
20
0.364209423964
30
0
11
0.878277965053
21
-0.420790576036
31
0
0
LINE
8
Vacuum
10
0.878277965053
20
-0.420790576036
30
0
11
-0.821722034947
21
-0.420790576036
31
0
0
LINE
8
Vacuum
10
-0.821722034947
20
-0.420790576036
30
0
11
-0.821722034947
21
0.364209423964
31
0
0
LINE
8
Vacuum
10
-0.364222034947
20
0.821709423964
30
0
11
0.420777965053
21
0.821709423964
31
0
0
LINE
8
Vacuum
10
0.420777965053
20
0.821709423964
30
0
11
0.420777965053
21
-0.878290576036
31
0
0
LINE
8
Vacuum
10
0.420777965053
20
-0.878290576036
30
0
11
-0.364222034947
21
-0.878290576036
31
0
0
LINE
8
Vacuum
10
-0.364222034947
20
-0.878290576036
30
0
11
-0.364222034947
21
0.821709423964
31
0
0
LINE
8
Vacuum
10
-3.27836359009
20
0.500264259343
11
-0.821722034947
21
0.364209423964
0
LINE
8
Vacuum
10
-3.27836359009
20
-0.284735740657
11
-0.821722034947
21
-0.420790576036
0
CIRCLE
8
Vacuum
10
0.427760375439
20
-11.1909882815
40
0.75
0
LINE
8
Vacuum
10
-0.144739624561
20
-10.3409882815
30
0
11
0.640260375439
21
-10.3409882815
31
0
0
LINE
8
Vacuum
10
0.640260375439
20
-10.3409882815
30
0
11
0.640260375439
21
-12.0409882815
31
0
0
LINE
8
Vacuum
10
0.640260375439
20
-12.0409882815
30
0
11
-0.144739624561
21
-12.0409882815
31
0
0
LINE
8
Vacuum
10
-0.144739624561
20
-12.0409882815
30
0
11
-0.144739624561
21
-10.3409882815
31
0
0
CIRCLE
8
Vacuum
10
0.293870200728
20
-4.10379928114
40
0.75
0
LINE
8
Vacuum
10
-0.238629799272
20
-3.25379928114
30
0
11
0.546370200728
21
-3.25379928114
31
0
0
LINE
8
Vacuum
10
0.546370200728
20
-3.25379928114
30
0
11
0.546370200728
21
-4.95379928114
31
0
0
LINE
8
Vacuum
10
0.546370200728
20
-4.95379928114
30
0
11
-0.238629799272
21
-4.95379928114
31
0
0
LINE
8
Vacuum
10
-0.238629799272
20
-4.95379928114
30
0
11
-0.238629799272
21
-3.25379928114
31
0
0
CIRCLE
8
Vacuum
10
0.0521122875016
20
-19.4069894192
40
0.75
0
LINE
8
Vacuum
10
-0.130387712498
20
-18.5569894192
30
0
11
0.654612287502
21
-18.5569894192
31
0
0
LINE
8
Vacuum
10
0.654612287502
20
-18.5569894192
30
0
11
0.654612287502
21
-20.2569894192
31
0
0
LINE
8
Vacuum
10
0.654612287502
20
-20.2569894192
30
0
11
-0.130387712498
21
-20.2569894192
31
0
0
LINE
8
Vacuum
10
-0.130387712498
20
-20.2569894192
30
0
11
-0.130387712498
21
-18.5569894192
31
0
0
LINE
8
Vacuum
10
-0.130387712498
20
-18.5569894192
11
-0.144739624561
21
-12.0409882815
0
LINE
8
Vacuum
10
0.654612287502
20
-18.5569894192
11
0.640260375439
21
-12.0409882815
0
LINE
8
Vacuum
10
-0.144739624561
20
-10.3409882815
11
-0.238629799272
21
-4.95379928114
0
LINE
8
Vacuum
10
0.640260375439
20
-10.3409882815
11
0.546370200728
21
-4.95379928114
0
LINE
8
Vacuum
10
-0.238629799272
20
-3.25379928114
11
-0.364222034947
21
-0.878290576036
0
LINE
8
Vacuum
10
0.546370200728
20
-3.25379928114
11
0.420777965053
21
-0.878290576036
0
CIRCLE
8
Vacuum
10
26.4321160223
20
-0.0163807284905
40
1.25
0
LINE
8
Vacuum
10
25.0821160223
20
0.376119271509
30
0
11
27.7821160223
21
0.376119271509
31
0
0
LINE
8
Vacuum
10
27.7821160223
20
0.376119271509
30
0
11
27.7821160223
21
-0.408880728491
31
0
0
LINE
8
Vacuum
10
27.7821160223
20
-0.408880728491
30
0
11
25.0821160223
21
-0.408880728491
31
0
0
LINE
8
Vacuum
10
25.0821160223
20
-0.408880728491
30
0
11
25.0821160223
21
0.376119271509
31
0
0
CIRCLE
8
Vacuum
10
-0.00759055707324
20
23.1469789127
40
1.25
0
LINE
8
Vacuum
10
-0.400090557073
20
24.4969789127
30
0
11
0.384909442927
21
24.4969789127
31
0
0
LINE
8
Vacuum
10
0.384909442927
20
24.4969789127
30
0
11
0.384909442927
21
21.7969789127
31
0
0
LINE
8
Vacuum
10
0.384909442927
20
21.7969789127
30
0
11
-0.400090557073
21
21.7969789127
31
0
0
LINE
8
Vacuum
10
-0.400090557073
20
21.7969789127
30
0
11
-0.400090557073
21
24.4969789127
31
0
0
LINE
8
Vacuum
10
0.878277965053
20
0.364209423964
11
25.0821160223
21
0.376119271509
0
LINE
8
Vacuum
10
0.878277965053
20
-0.420790576036
11
25.0821160223
21
-0.408880728491
0
LINE
8
Vacuum
10
-0.364222034947
20
0.821709423964
11
-0.400090557073
21
21.7969789127
0
LINE
8
Vacuum
10
0.420777965053
20
0.821709423964
11
0.384909442927
21
21.7969789127
0
LINE
8
main_beam
10
1.06581410364e-14
20
1.21014309684e-14
11
0.0882163902143
21
-0.0250230553011
0
LWPOLYLINE
8
main_beam_width
70
0
90
10
10
0.093528341796
20
0.0934866500186
10
0.103352534034
20
0.0906996426109
10
0.113176726272
20
0.0879126352033
10
0.12300091851
20
0.0851256277959
10
0.132825110748
20
0.0823386203887
10
0.142649302986
20
0.0795516129817
10
0.152473495225
20
0.0767646055748
10
0.162297687463
20
0.0739775981682
10
0.172121879701
20
0.0711905907617
10
0.18194607194
20
0.0684035833555
0
LWPOLYLINE
8
main_beam_width
70
0
90
10
10
-0.0935315125403
20
-0.0934898193495
10
-0.083752064424
20
-0.0962634918248
10
-0.0739726163076
20
-0.0990371643003
10
-0.0641931681914
20
-0.101810836776
10
-0.0544137200751
20
-0.104584509252
10
-0.044634271959
20
-0.107358181728
10
-0.0348548238429
20
-0.110131854204
10
-0.0250753757268
20
-0.112905526681
10
-0.0152959276108
20
-0.115679199157
10
-0.00551647949482
20
-0.118452871634
0
TEXT
8
text
10
-0.00525925791986
20
0.0118863365376
40
0.01
1

0
LINE
8
main_beam
10
0.0249447961725
20
-0.0880900821484
11
0.0524719978755
21
-19.3572204993
0
LWPOLYLINE
8
main_beam_width
70
0
90
10
10
0.11852950686
20
0.00519205418518
10
0.121719647128
20
-2.14624915829
10
0.124909821547
20
-4.29769037071
10
0.12810002999
20
-6.44913158309
10
0.131290272332
20
-8.60057279542
10
0.134480548445
20
-10.7520140077
10
0.137670858205
20
-12.9034552199
10
0.140861201487
20
-15.0548964321
10
0.144051578167
20
-17.2063376442
10
0.147241988121
20
-19.3577788563
0
LWPOLYLINE
8
main_beam_width
70
0
90
10
10
-0.068650001716
20
-0.181382273069
10
-0.06572189985
20
-2.31193957148
10
-0.0627938314662
20
-4.44249686993
10
-0.0598657964412
20
-6.57305416844
10
-0.056937794652
20
-8.70361146699
10
-0.0540098259766
20
-10.8341687656
10
-0.051081890293
20
-12.9647260642
10
-0.0481539874803
20
-15.0952833629
10
-0.0452261174178
20
-17.2258406617
10
-0.0422982799856
20
-19.3563979605
0
TEXT
8
text
10
0.0623291313359
20
-19.2572063157
40
0.01
1

0
LINE
8
main_beam
10
-11.0041656037
20
0.393136391151
11
-4.2299904348
21
0.268728801411
0
LWPOLYLINE
8
main_beam_width
70
0
90
19
10
-11.0040730927
20
0.398248189114
10
-10.627734468
20
0.391600310277
10
-10.251395741
20
0.384958000674
10
-9.87505692565
20
0.378320500786
10
-9.49871803369
20
0.371687172901
10
-9.12237907497
20
0.365057479846
10
-8.74604005784
20
0.358430967461
10
-8.36970098938
20
0.35180725024
10
-7.99336187563
20
0.345185999594
10
-7.61702272173
20
0.338566934276
10
-7.24068353215
20
0.331949812546
10
-6.8643443107
20
0.325334425768
10
-6.48800506071
20
0.318720593143
10
-6.11166578506
20
0.312108157381
10
-5.73532648629
20
0.305496981124
10
-5.35898716659
20
0.298886943974
10
-4.98264782793
20
0.29227794003
10
-4.606308472
20
0.285669875822
10
-4.22996910033
20
0.27906266858
0
LWPOLYLINE
8
main_beam_width
70
0
90
19
10
-11.0042608479
20
0.388024643386
10
-10.6279118425
20
0.38084941494
10
-10.2515629394
20
0.373668616708
10
-9.87521412454
20
0.366483008321
10
-9.49886538636
20
0.359293227579
10
-9.12251671493
20
0.352099811725
10
-8.74616810192
20
0.344903214971
10
-8.36981954025
20
0.33770382287
10
-7.99347102388
20
0.330501964042
10
-7.61712254764
20
0.323297919765
10
-7.2407741071
20
0.316091931799
10
-6.86442569843
20
0.3088842088
10
-6.48807731829
20
0.301674931581
10
-6.11172896382
20
0.294464257443
10
-5.73538063247
20
0.287252323755
10
-5.35903232204
20
0.280039250923
10
-4.98268403059
20
0.272825144853
10
-4.6063357564
20
0.265610099024
10
-4.22998749795
20
0.258394196205
0
TEXT
8
text
10
-4.32978995661
20
0.280563303827
40
0.01
1

0
LINE
8
main_beam
10
53.1140547305
20
-0.00757783943246
11
53.0140588478
21
-0.00761073754086
0
LWPOLYLINE
8
main_beam_width
70
0
90
10
10
53.1139884989
20
-0.098103281947
10
53.1028885138
20
-0.0981078677512
10
53.0917885287
20
-0.0981124535565
10
53.0806885435
20
-0.0981170393628
10
53.0695885584
20
-0.0981216251702
10
53.0584885733
20
-0.0981262109785
10
53.0473885882
20
-0.0981307967878
10
53.0362886031
20
-0.0981353825982
10
53.025188618
20
-0.0981399684096
10
53.0140886329
20
-0.0981445542219
0
LWPOLYLINE
8
main_beam_width
70
0
90
10
10
53.1141209621
20
0.0829475869245
10
53.10299964
20
0.0829448638333
10
53.0918783178
20
0.0829421407431
10
53.0807569956
20
0.0829394176539
10
53.0696356735
20
0.0829366945658
10
53.0585143513
20
0.0829339714786
10
53.0473930291
20
0.0829312483925
10
53.036271707
20
0.0829285253074
10
53.0251503848
20
0.0829258022233
10
53.0140290626
20
0.0829230791402
0
TEXT
8
text
10
53.1140621323
20
-0.0175778375385
40
0.01
1

0
LINE
8
main_beam
10
0.0524719978755
20
-19.3572204993
11
0.294906576435
21
-4.20563598849
0
LWPOLYLINE
8
main_beam_width
70
0
90
100
10
-0.0422998599306
20
-19.3563979445
10
-0.0390060222582
20
-19.2033599881
10
-0.0357121847582
20
-19.0503220316
10
-0.0324183474352
20
-18.8972840752
10
-0.0291245102942
20
-18.7442461187
10
-0.0258306733404
20
-18.5912081623
10
-0.0225368365789
20
-18.4381702058
10
-0.0192430000153
20
-18.2851322494
10
-0.0159491636553
20
-18.1320942929
10
-0.0126553275048
20
-17.9790563364
10
-0.00936149156987
20
-17.82601838
10
-0.00606765585703
20
-17.6729804235
10
-0.00277382037288
20
-17.519942467
10
0.000520014875649
20
-17.3669045105
10
0.00381384988137
20
-17.213866554
10
0.00710768463677
20
-17.0608285976
10
0.0104015191341
20
-16.9077906411
10
0.0136953533651
20
-16.7547526846
10
0.0169891873214
20
-16.6017147281
10
0.020283020994
20
-16.4486767716
10
0.0235768543739
20
-16.295638815
10
0.0268706874513
20
-16.1426008585
10
0.0301645202162
20
-15.989562902
10
0.033458352658
20
-15.8365249455
10
0.0367521847658
20
-15.6834869889
10
0.040046016528
20
-15.5304490324
10
0.0433398479327
20
-15.3774110759
10
0.0466336789673
20
-15.2243731193
10
0.0499275096184
20
-15.0713351628
10
0.0532213398724
20
-14.9182972062
10
0.0565151697147
20
-14.7652592496
10
0.0598089991301
20
-14.612221293
10
0.0631028281025
20
-14.4591833365
10
0.0663966566153
20
-14.3061453799
10
0.0696904846508
20
-14.1531074233
10
0.0729843121904
20
-14.0000694667
10
0.0762781392146
20
-13.8470315101
10
0.0795719657028
20
-13.6939935534
10
0.0828657916333
20
-13.5409555968
10
0.0861596169832
20
-13.3879176402
10
0.0894534417285
20
-13.2348796835
10
0.0927472658436
20
-13.0818417269
10
0.0960410893016
20
-12.9288037702
10
0.0993349120739
20
-12.7757658135
10
0.10262873413
20
-12.6227278568
10
0.105922555439
20
-12.4696899001
10
0.109216375966
20
-12.3166519434
10
0.112510195676
20
-12.1636139867
10
0.115804014529
20
-12.0105760299
10
0.119097832486
20
-11.8575380731
10
0.122391649503
20
-11.7045001164
10
0.125685465534
20
-11.5514621596
10
0.12897928053
20
-11.3984242028
10
0.132273094438
20
-11.245386246
10
0.135566907202
20
-11.0923482891
10
0.138860718763
20
-10.9393103322
10
0.142154529056
20
-10.7862723754
10
0.145448338011
20
-10.6332344185
10
0.148742145556
20
-10.4801964615
10
0.15203595161
20
-10.3271585046
10
0.155329756087
20
-10.1741205476
10
0.158623558895
20
-10.0210825906
10
0.161917359934
20
-9.86804463358
10
0.165211159097
20
-9.71500667652
10
0.168504956266
20
-9.56196871943
10
0.171798751315
20
-9.40893076231
10
0.175092544105
20
-9.25589280515
10
0.178386334487
20
-9.10285484795
10
0.181680122297
20
-8.9498168907
10
0.184973907356
20
-8.79677893342
10
0.188267689469
20
-8.64374097609
10
0.19156146842
20
-8.4907030187
10
0.194855243974
20
-8.33766506127
10
0.198149015871
20
-8.18462710377
10
0.201442783822
20
-8.03158914621
10
0.204736547509
20
-7.87855118858
10
0.208030306579
20
-7.72551323088
10
0.211324060637
20
-7.5724752731
10
0.214617809243
20
-7.41943731523
10
0.217911551904
20
-7.26639935727
10
0.221205288066
20
-7.1133613992
10
0.224499017103
20
-6.96032344102
10
0.227792738305
20
-6.80728548271
10
0.231086450868
20
-6.65424752427
10
0.234380153869
20
-6.50120956567
10
0.237673846255
20
-6.3481716069
10
0.240967526807
20
-6.19513364794
10
0.244261194113
20
-6.04209568877
10
0.24755484653
20
-5.88905772936
10
0.25084848213
20
-5.73601976969
10
0.254142098635
20
-5.5829818097
10
0.257435693339
20
-5.42994384937
10
0.260729262998
20
-5.27690588864
10
0.264022803692
20
-5.12386792745
10
0.267316310637
20
-4.97082996571
10
0.270609777936
20
-4.81779200334
10
0.27390319823
20
-4.66475404022
10
0.277196562224
20
-4.5117160762
10
0.280489857996
20
-4.35867811108
10
0.283783070007
20
-4.20564014463
0
LWPOLYLINE
8
main_beam_width
70
0
90
100
10
0.147238964247
20
-19.3577788427
10
0.1488428266
20
-19.2047265966
10
0.150446689124
20
-19.0516743505
10
0.152050551826
20
-18.8986221043
10
0.15365441471
20
-18.7455698582
10
0.155258277781
20
-18.5925176121
10
0.156862141045
20
-18.439465366
10
0.158466004506
20
-18.2864131198
10
0.160069868171
20
-18.1333608737
10
0.161673732046
20
-17.9803086276
10
0.163277596136
20
-17.8272563815
10
0.164881460448
20
-17.6742041354
10
0.166485324989
20
-17.5211518893
10
0.168089189766
20
-17.3680996432
10
0.169693054785
20
-17.2150473971
10
0.171296920055
20
-17.061995151
10
0.172900785583
20
-16.9089429049
10
0.174504651377
20
-16.7558906589
10
0.176108517447
20
-16.6028384128
10
0.177712383799
20
-16.4497861667
10
0.179316250445
20
-16.2967339206
10
0.180920117393
20
-16.1436816746
10
0.182523984653
20
-15.9906294285
10
0.184127852237
20
-15.8375771825
10
0.185731720155
20
-15.6845249364
10
0.187335588418
20
-15.5314726904
10
0.188939457039
20
-15.3784204443
10
0.19054332603
20
-15.2253681983
10
0.192147195405
20
-15.0723159523
10
0.193751065177
20
-14.9192637063
10
0.19535493536
20
-14.7662114603
10
0.196958805971
20
-14.6131592143
10
0.198562677025
20
-14.4601069683
10
0.200166548538
20
-14.3070547223
10
0.201770420529
20
-14.1540024763
10
0.203374293015
20
-14.0009502303
10
0.204978166017
20
-13.8478979844
10
0.206582039555
20
-13.6948457384
10
0.208185913651
20
-13.5417934925
10
0.209789788328
20
-13.3887412465
10
0.211393663609
20
-13.2356890006
10
0.212997539521
20
-13.0826367547
10
0.21460141609
20
-12.9295845088
10
0.216205293344
20
-12.7765322629
10
0.217809171314
20
-12.623480017
10
0.219413050033
20
-12.4704277711
10
0.221016929533
20
-12.3173755252
10
0.222620809851
20
-12.1643232794
10
0.224224691025
20
-12.0112710336
10
0.225828573096
20
-11.8582187877
10
0.227432456107
20
-11.7051665419
10
0.229036340103
20
-11.5521142961
10
0.230640225136
20
-11.3990620504
10
0.232244111256
20
-11.2460098046
10
0.233847998519
20
-11.0929575589
10
0.235451886987
20
-10.9399053132
10
0.237055776723
20
-10.7868530675
10
0.238659667797
20
-10.6338008218
10
0.240263560282
20
-10.4807485761
10
0.241867454257
20
-10.3276963305
10
0.24347134981
20
-10.1746440849
10
0.245075247032
20
-10.0215918393
10
0.246679146023
20
-9.86853959377
10
0.248283046891
20
-9.71548734825
10
0.249886949752
20
-9.56243510276
10
0.251490854735
20
-9.40938285731
10
0.253094761977
20
-9.25633061189
10
0.254698671627
20
-9.10327836651
10
0.25630258385
20
-8.95022612117
10
0.257906498824
20
-8.79717387588
10
0.259510416744
20
-8.64412163063
10
0.261114337827
20
-8.49106938544
10
0.262718262308
20
-8.33801714029
10
0.264322190447
20
-8.18496489521
10
0.265926122533
20
-8.03191265019
10
0.267530058883
20
-7.87886040524
10
0.269133999851
20
-7.72580816036
10
0.270737945832
20
-7.57275591556
10
0.272341897266
20
-7.41970367085
10
0.273945854646
20
-7.26665142624
10
0.275549818528
20
-7.11359918173
10
0.277153789535
20
-6.96054693733
10
0.278757768379
20
-6.80749469306
10
0.280361755865
20
-6.65444244892
10
0.281965752913
20
-6.50139020494
10
0.283569760581
20
-6.34833796113
10
0.285173780085
20
-6.19528571751
10
0.286777812838
20
-6.0422334741
10
0.288381860483
20
-5.88918123093
10
0.289985924951
20
-5.73612898803
10
0.291590008519
20
-5.58307674543
10
0.293194113893
20
-5.43002450319
10
0.29479824432
20
-5.27697226134
10
0.296402403721
20
-5.12392001996
10
0.29800659688
20
-4.97086777911
10
0.2996108297
20
-4.81781553891
10
0.301215109539
20
-4.66476329945
10
0.302819445699
20
-4.5117110609
10
0.304423850105
20
-4.35865882343
10
0.306028338306
20
-4.20560658731
0
TEXT
8
text
10
0.283308000177
20
-4.30546320436
40
0.01
1

0
LINE
8
main_beam
10
0.0524719978755
20
-19.3572204993
11
0.294906576435
21
-4.20563598849
0
LWPOLYLINE
8
main_beam_width
70
0
90
100
10
-0.0422998599306
20
-19.3563979445
10
-0.0390060222582
20
-19.2033599881
10
-0.0357121847582
20
-19.0503220316
10
-0.0324183474352
20
-18.8972840752
10
-0.0291245102943
20
-18.7442461187
10
-0.0258306733404
20
-18.5912081623
10
-0.0225368365789
20
-18.4381702058
10
-0.0192430000153
20
-18.2851322494
10
-0.0159491636553
20
-18.1320942929
10
-0.0126553275048
20
-17.9790563364
10
-0.00936149156988
20
-17.82601838
10
-0.00606765585704
20
-17.6729804235
10
-0.00277382037289
20
-17.519942467
10
0.000520014875638
20
-17.3669045105
10
0.00381384988136
20
-17.213866554
10
0.00710768463676
20
-17.0608285976
10
0.010401519134
20
-16.9077906411
10
0.0136953533651
20
-16.7547526846
10
0.0169891873213
20
-16.6017147281
10
0.020283020994
20
-16.4486767716
10
0.0235768543739
20
-16.295638815
10
0.0268706874513
20
-16.1426008585
10
0.0301645202162
20
-15.989562902
10
0.033458352658
20
-15.8365249455
10
0.0367521847658
20
-15.6834869889
10
0.040046016528
20
-15.5304490324
10
0.0433398479327
20
-15.3774110759
10
0.0466336789673
20
-15.2243731193
10
0.0499275096184
20
-15.0713351628
10
0.0532213398724
20
-14.9182972062
10
0.0565151697147
20
-14.7652592496
10
0.0598089991301
20
-14.612221293
10
0.0631028281025
20
-14.4591833365
10
0.0663966566153
20
-14.3061453799
10
0.0696904846508
20
-14.1531074233
10
0.0729843121904
20
-14.0000694667
10
0.0762781392146
20
-13.8470315101
10
0.0795719657028
20
-13.6939935534
10
0.0828657916333
20
-13.5409555968
10
0.0861596169832
20
-13.3879176402
10
0.0894534417285
20
-13.2348796835
10
0.0927472658436
20
-13.0818417269
10
0.0960410893016
20
-12.9288037702
10
0.0993349120739
20
-12.7757658135
10
0.10262873413
20
-12.6227278568
10
0.105922555439
20
-12.4696899001
10
0.109216375966
20
-12.3166519434
10
0.112510195676
20
-12.1636139867
10
0.115804014529
20
-12.0105760299
10
0.119097832486
20
-11.8575380731
10
0.122391649503
20
-11.7045001164
10
0.125685465534
20
-11.5514621596
10
0.12897928053
20
-11.3984242028
10
0.132273094438
20
-11.245386246
10
0.135566907202
20
-11.0923482891
10
0.138860718763
20
-10.9393103322
10
0.142154529056
20
-10.7862723754
10
0.145448338011
20
-10.6332344185
10
0.148742145556
20
-10.4801964615
10
0.15203595161
20
-10.3271585046
10
0.155329756087
20
-10.1741205476
10
0.158623558895
20
-10.0210825906
10
0.161917359934
20
-9.86804463358
10
0.165211159097
20
-9.71500667652
10
0.168504956266
20
-9.56196871943
10
0.171798751315
20
-9.40893076231
10
0.175092544105
20
-9.25589280515
10
0.178386334487
20
-9.10285484795
10
0.181680122297
20
-8.9498168907
10
0.184973907356
20
-8.79677893342
10
0.188267689469
20
-8.64374097609
10
0.19156146842
20
-8.4907030187
10
0.194855243974
20
-8.33766506127
10
0.198149015871
20
-8.18462710377
10
0.201442783822
20
-8.03158914621
10
0.204736547509
20
-7.87855118858
10
0.208030306579
20
-7.72551323088
10
0.211324060637
20
-7.5724752731
10
0.214617809243
20
-7.41943731523
10
0.217911551904
20
-7.26639935727
10
0.221205288066
20
-7.1133613992
10
0.224499017103
20
-6.96032344102
10
0.227792738305
20
-6.80728548271
10
0.231086450868
20
-6.65424752427
10
0.234380153869
20
-6.50120956567
10
0.237673846255
20
-6.3481716069
10
0.240967526807
20
-6.19513364794
10
0.244261194113
20
-6.04209568877
10
0.24755484653
20
-5.88905772936
10
0.25084848213
20
-5.73601976969
10
0.254142098635
20
-5.5829818097
10
0.257435693339
20
-5.42994384937
10
0.260729262998
20
-5.27690588864
10
0.264022803692
20
-5.12386792745
10
0.267316310637
20
-4.97082996571
10
0.270609777936
20
-4.81779200334
10
0.27390319823
20
-4.66475404022
10
0.277196562224
20
-4.5117160762
10
0.280489857996
20
-4.35867811108
10
0.283783070007
20
-4.20564014463
0
LWPOLYLINE
8
main_beam_width
70
0
90
100
10
0.147238964247
20
-19.3577788427
10
0.1488428266
20
-19.2047265966
10
0.150446689124
20
-19.0516743505
10
0.152050551826
20
-18.8986221043
10
0.15365441471
20
-18.7455698582
10
0.155258277781
20
-18.5925176121
10
0.156862141045
20
-18.439465366
10
0.158466004506
20
-18.2864131198
10
0.160069868171
20
-18.1333608737
10
0.161673732046
20
-17.9803086276
10
0.163277596136
20
-17.8272563815
10
0.164881460448
20
-17.6742041354
10
0.166485324989
20
-17.5211518893
10
0.168089189766
20
-17.3680996432
10
0.169693054785
20
-17.2150473971
10
0.171296920055
20
-17.061995151
10
0.172900785583
20
-16.9089429049
10
0.174504651377
20
-16.7558906589
10
0.176108517447
20
-16.6028384128
10
0.177712383799
20
-16.4497861667
10
0.179316250445
20
-16.2967339206
10
0.180920117393
20
-16.1436816746
10
0.182523984653
20
-15.9906294285
10
0.184127852237
20
-15.8375771825
10
0.185731720155
20
-15.6845249364
10
0.187335588418
20
-15.5314726904
10
0.188939457039
20
-15.3784204443
10
0.19054332603
20
-15.2253681983
10
0.192147195405
20
-15.0723159523
10
0.193751065177
20
-14.9192637063
10
0.19535493536
20
-14.7662114603
10
0.196958805971
20
-14.6131592143
10
0.198562677025
20
-14.4601069683
10
0.200166548538
20
-14.3070547223
10
0.201770420528
20
-14.1540024763
10
0.203374293015
20
-14.0009502303
10
0.204978166017
20
-13.8478979844
10
0.206582039555
20
-13.6948457384
10
0.208185913651
20
-13.5417934925
10
0.209789788328
20
-13.3887412465
10
0.211393663609
20
-13.2356890006
10
0.212997539521
20
-13.0826367547
10
0.214601416089
20
-12.9295845088
10
0.216205293344
20
-12.7765322629
10
0.217809171314
20
-12.623480017
10
0.219413050033
20
-12.4704277711
10
0.221016929533
20
-12.3173755252
10
0.222620809851
20
-12.1643232794
10
0.224224691025
20
-12.0112710336
10
0.225828573096
20
-11.8582187877
10
0.227432456107
20
-11.7051665419
10
0.229036340103
20
-11.5521142961
10
0.230640225136
20
-11.3990620504
10
0.232244111256
20
-11.2460098046
10
0.233847998519
20
-11.0929575589
10
0.235451886987
20
-10.9399053132
10
0.237055776723
20
-10.7868530675
10
0.238659667797
20
-10.6338008218
10
0.240263560282
20
-10.4807485761
10
0.241867454257
20
-10.3276963305
10
0.24347134981
20
-10.1746440849
10
0.245075247032
20
-10.0215918393
10
0.246679146023
20
-9.86853959377
10
0.248283046891
20
-9.71548734825
10
0.249886949752
20
-9.56243510276
10
0.251490854735
20
-9.40938285731
10
0.253094761977
20
-9.25633061189
10
0.254698671627
20
-9.10327836651
10
0.25630258385
20
-8.95022612117
10
0.257906498824
20
-8.79717387588
10
0.259510416744
20
-8.64412163063
10
0.261114337827
20
-8.49106938544
10
0.262718262308
20
-8.33801714029
10
0.264322190447
20
-8.18496489521
10
0.265926122533
20
-8.03191265019
10
0.267530058883
20
-7.87886040524
10
0.269133999851
20
-7.72580816036
10
0.270737945832
20
-7.57275591556
10
0.272341897266
20
-7.41970367085
10
0.273945854646
20
-7.26665142624
10
0.275549818528
20
-7.11359918173
10
0.277153789535
20
-6.96054693733
10
0.278757768379
20
-6.80749469306
10
0.280361755865
20
-6.65444244892
10
0.281965752913
20
-6.50139020494
10
0.283569760581
20
-6.34833796113
10
0.285173780085
20
-6.19528571751
10
0.286777812838
20
-6.0422334741
10
0.288381860483
20
-5.88918123093
10
0.289985924951
20
-5.73612898803
10
0.291590008519
20
-5.58307674543
10
0.293194113893
20
-5.43002450319
10
0.29479824432
20
-5.27697226134
10
0.296402403721
20
-5.12392001996
10
0.29800659688
20
-4.97086777911
10
0.2996108297
20
-4.81781553891
10
0.301215109539
20
-4.66476329945
10
0.302819445699
20
-4.5117110609
10
0.304423850105
20
-4.35865882343
10
0.306028338306
20
-4.20560658731
0
TEXT
8
text
10
0.283308000177
20
-4.30546320436
40
0.01
1

0
LINE
8
main_beam
10
-0.0163934461315
20
49.928913509
11
-0.0163934446568
21
2988.29010673
0
LWPOLYLINE
8
main_beam_width
70
0
90
21
10
-0.107253618331
20
49.928913509
10
-0.102582967168
20
196.84697317
10
-0.0981182782445
20
343.765032831
10
-0.0938951547214
20
490.683092492
10
-0.0899552126117
20
637.601152153
10
-0.086346317007
20
784.519211814
10
-0.0831222015693
20
931.437271475
10
-0.0803410923987
20
1078.35533114
10
-0.0780629533937
20
1225.2733908
10
-0.0763451499483
20
1372.19145046
10
-0.0752367758852
20
1519.10951012
10
-0.0747725530409
20
1666.02756978
10
-0.0749677988069
20
1812.94562944
10
-0.0758160130536
20
1959.8636891
10
-0.0772899167036
20
2106.78174876
10
-0.0793455771259
20
2253.69980842
10
-0.0819282724856
20
2400.61786808
10
-0.0849784892069
20
2547.53592775
10
-0.0884368691613
20
2694.45398741
10
-0.0922476053439
20
2841.37204707
10
-0.0963603401413
20
2988.29010673
0
LWPOLYLINE
8
main_beam_width
70
0
90
21
10
0.0744667260677
20
49.928913509
10
0.0697960750521
20
196.84697317
10
0.0653313862764
20
343.765032831
10
0.0611082629008
20
490.683092492
10
0.0571683209386
20
637.601152153
10
0.0535594254814
20
784.519211814
10
0.0503353101912
20
931.437271475
10
0.047554201168
20
1078.35533114
10
0.0452760623105
20
1225.2733908
10
0.0435582590126
20
1372.19145046
10
0.0424498850969
20
1519.10951012
10
0.0419856624001
20
1666.02756978
10
0.0421809083135
20
1812.94562944
10
0.0430291227078
20
1959.8636891
10
0.0445030265052
20
2106.78174876
10
0.046558687075
20
2253.69980842
10
0.0491413825822
20
2400.61786808
10
0.0521915994509
20
2547.53592775
10
0.0556499795528
20
2694.45398741
10
0.0594607158829
20
2841.37204707
10
0.0635734508278
20
2988.29010673
0
TEXT
8
text
10
-0.0263934446568
20
2988.19010673
40
0.01
1

0
LINE
8
main_beam
10
-0.0163934461315
20
49.8289176209
11
3.82333054105e-15
21
7.1054273576e-15
0
LWPOLYLINE
8
main_beam_width
70
0
90
10
10
0.0744704508924
20
49.8288511416
10
0.0765866457802
20
44.3026991437
10
0.0787030863918
20
38.7765471458
10
0.0808197703302
20
33.250395148
10
0.0829366952275
20
27.7242431503
10
0.0850538587446
20
22.1980911527
10
0.0871712585709
20
16.6719391552
10
0.0892888924234
20
11.1457871577
10
0.0914067580469
20
5.61963516031
10
0.0935248532134
20
0.0934831629911
0
LWPOLYLINE
8
main_beam_width
70
0
90
10
10
-0.107257332762
20
49.8289841001
10
-0.105731661255
20
44.2820421663
10
-0.104206237315
20
38.7351002325
10
-0.102681058519
20
33.1881582985
10
-0.101156122471
20
27.6412163645
10
-0.0996314268069
20
22.0942744303
10
-0.0981069691896
20
16.5473324961
10
-0.0965827473113
20
11.0003905619
10
-0.0950587588917
20
5.4534486275
10
-0.0935350016785
20
-0.0934933069323
0
TEXT
8
text
10
0.00996709999797
20
0.100003284534
40
0.01
1

0
LINE
8
main_beam
10
-4.2299904348
20
0.268728801411
11
-19.5219461967
21
0.0151267826399
0
LWPOLYLINE
8
main_beam_width
70
0
90
100
10
-4.22998749744
20
0.258393848707
10
-4.38444285269
20
0.254981453677
10
-4.5388982062
20
0.251568954062
10
-4.69335355832
20
0.248156370579
10
-4.84780890931
20
0.244743718815
10
-5.00226425936
20
0.241331010719
10
-5.15671960864
20
0.237918255608
10
-5.31117495726
20
0.234505460851
10
-5.46563030532
20
0.231092632353
10
-5.6200856529
20
0.227679774904
10
-5.77454100006
20
0.224266892426
10
-5.92899634686
20
0.220853988165
10
-6.08345169335
20
0.217441064828
10
-6.23790703955
20
0.214028124693
10
-6.39236238551
20
0.210615169687
10
-6.54681773125
20
0.207202201455
10
-6.7012730768
20
0.203789221406
10
-6.85572842217
20
0.200376230758
10
-7.01018376738
20
0.196963230566
10
-7.16463911245
20
0.19355022175
10
-7.31909445739
20
0.190137205114
10
-7.47354980221
20
0.186724181367
10
-7.62800514692
20
0.183311151134
10
-7.78246049153
20
0.179898114968
10
-7.93691583606
20
0.176485073363
10
-8.0913711805
20
0.173072026757
10
-8.24582652487
20
0.169658975545
10
-8.40028186916
20
0.166245920078
10
-8.55473721339
20
0.162832860676
10
-8.70919255756
20
0.159419797626
10
-8.86364790167
20
0.156006731186
10
-9.01810324573
20
0.152593661593
10
-9.17255858974
20
0.149180589062
10
-9.32701393371
20
0.145767513787
10
-9.48146927763
20
0.142354435947
10
-9.63592462151
20
0.138941355705
10
-9.79037996536
20
0.135528273212
10
-9.94483530917
20
0.132115188603
10
-10.099290653
20
0.128702102007
10
-10.2537459967
20
0.125289013539
10
-10.4082013404
20
0.121875923308
10
-10.5626566841
20
0.118462831413
10
-10.7171120278
20
0.115049737946
10
-10.8715673714
20
0.111636642992
10
-11.026022715
20
0.108223546632
10
-11.1804780586
20
0.104810448939
10
-11.3349334022
20
0.101397349981
10
-11.4893887457
20
0.0979842498238
10
-11.6438440893
20
0.0945711485261
10
-11.7982994328
20
0.0911580461442
10
-11.9527547763
20
0.0877449427304
10
-12.1072101198
20
0.0843318383338
10
-12.2616654632
20
0.0809187330004
10
-12.4161208067
20
0.0775056267733
10
-12.5705761501
20
0.074092519693
10
-12.7250314936
20
0.0706794117977
10
-12.879486837
20
0.0672663031233
10
-13.0339421804
20
0.0638531937036
10
-13.1883975238
20
0.0604400835704
10
-13.3428528671
20
0.0570269727538
10
-13.4973082105
20
0.0536138612824
10
-13.6517635539
20
0.0502007491829
10
-13.8062188972
20
0.0467876364807
10
-13.9606742405
20
0.0433745232
10
-14.1151295839
20
0.0399614093635
10
-14.2695849272
20
0.0365482949929
10
-14.4240402705
20
0.0331351801086
10
-14.5784956138
20
0.0297220647301
10
-14.7329509571
20
0.026308948876
10
-14.8874063004
20
0.0228958325638
10
-15.0418616437
20
0.0194827158103
10
-15.1963169869
20
0.0160695986313
10
-15.3507723302
20
0.0126564810421
10
-15.5052276734
20
0.00924336305706
10
-15.6596830167
20
0.00583024469005
10
-15.8141383599
20
0.00241712595419
10
-15.9685937032
20
-0.000995993137961
10
-16.1230490464
20
-0.00440911257442
10
-16.2775043896
20
-0.00782223234371
10
-16.4319597329
20
-0.0112353524349
10
-16.5864150761
20
-0.0146484728375
10
-16.7408704193
20
-0.0180615935414
10
-16.8953257625
20
-0.0214747145371
10
-17.0497811057
20
-0.0248878358154
10
-17.2042364489
20
-0.0283009573674
10
-17.3586917921
20
-0.0317140791847
10
-17.5131471353
20
-0.0351272012592
10
-17.6676024785
20
-0.0385403235831
10
-17.8220578217
20
-0.0419534461489
10
-17.9765131648
20
-0.0453665689495
10
-18.130968508
20
-0.0487796919779
10
-18.2854238512
20
-0.0521928152275
10
-18.4398791943
20
-0.055605938692
10
-18.5943345375
20
-0.0590190623652
10
-18.7487898807
20
-0.0624321862412
10
-18.9032452238
20
-0.0658453103143
10
-19.057700567
20
-0.0692584345792
10
-19.2121559101
20
-0.0726715590304
10
-19.3666112533
20
-0.0760846836629
10
-19.5210665964
20
-0.0794978084719
0
LWPOLYLINE
8
main_beam_width
70
0
90
100
10
-4.22996910195
20
0.279062167833
10
-4.38443973052
20
0.277351258251
10
-4.53891036081
20
0.275640453295
10
-4.6933809925
20
0.273929732237
10
-4.84785162532
20
0.272219079484
10
-5.00232225907
20
0.27050848308
10
-5.15679289361
20
0.268797933708
10
-5.3112635288
20
0.267087423993
10
-5.46573416455
20
0.265376948029
10
-5.62020480079
20
0.263666501025
10
-5.77467543743
20
0.261956079056
10
-5.92914607444
20
0.260245678875
10
-6.08361671177
20
0.258535297775
10
-6.23808734937
20
0.256824933478
10
-6.39255798722
20
0.255114584055
10
-6.54702862529
20
0.253404247862
10
-6.70149926356
20
0.251693923488
10
-6.855969902
20
0.249983609715
10
-7.0104405406
20
0.248273305489
10
-7.16491117934
20
0.246563009889
10
-7.31938181822
20
0.244852722109
10
-7.47385245721
20
0.243142441443
10
-7.62832309631
20
0.241432167264
10
-7.7827937355
20
0.239721899019
10
-7.93726437479
20
0.238011636214
10
-8.09173501416
20
0.236301378411
10
-8.24620565361
20
0.234591125215
10
-8.40067629312
20
0.232880876275
10
-8.55514693271
20
0.23117063127
10
-8.70961757235
20
0.229460389915
10
-8.86408821205
20
0.227750151949
10
-9.0185588518
20
0.226039917137
10
-9.1730294916
20
0.224329685265
10
-9.32750013144
20
0.222619456136
10
-9.48197077133
20
0.220909229573
10
-9.63644141126
20
0.219199005412
10
-9.79091205123
20
0.217488783503
10
-9.94538269123
20
0.215778563709
10
-10.0998533313
20
0.214068345904
10
-10.2543239713
20
0.21235812997
10
-10.4087946114
20
0.2106479158
10
-10.5632652515
20
0.208937703295
10
-10.7177358917
20
0.207227492361
10
-10.8722065319
20
0.205517282914
10
-11.0266771721
20
0.203807074874
10
-11.1811478123
20
0.202096868167
10
-11.3356184525
20
0.200386662725
10
-11.4900890928
20
0.198676458483
10
-11.644559733
20
0.196966255381
10
-11.7990303733
20
0.195256053364
10
-11.9535010137
20
0.193545852379
10
-12.107971654
20
0.191835652376
10
-12.2624422943
20
0.190125453311
10
-12.4169129347
20
0.188415255139
10
-12.5713835751
20
0.186705057821
10
-12.7258542154
20
0.184994861318
10
-12.8803248558
20
0.183284665594
10
-13.0347954963
20
0.181574470615
10
-13.1892661367
20
0.17986427635
10
-13.3437367771
20
0.178154082769
10
-13.4982074176
20
0.176443889842
10
-13.652678058
20
0.174733697544
10
-13.8071486985
20
0.173023505848
10
-13.961619339
20
0.171313314731
10
-14.1160899794
20
0.16960312417
10
-14.2705606199
20
0.167892934143
10
-14.4250312604
20
0.16618274463
10
-14.579501901
20
0.164472555611
10
-14.7339725415
20
0.162762367068
10
-14.888443182
20
0.161052178983
10
-15.0429138225
20
0.159341991339
10
-15.1973844631
20
0.157631804121
10
-15.3518551036
20
0.155921617313
10
-15.5063257442
20
0.154211430901
10
-15.6607963847
20
0.152501244871
10
-15.8152670253
20
0.15079105921
10
-15.9697376659
20
0.149080873905
10
-16.1242083065
20
0.147370688945
10
-16.278678947
20
0.145660504317
10
-16.4331495876
20
0.143950320011
10
-16.5876202282
20
0.142240136017
10
-16.7420908688
20
0.140529952324
10
-16.8965615094
20
0.138819768923
10
-17.05103215
20
0.137109585805
10
-17.2055027906
20
0.13539940296
10
-17.3599734313
20
0.133689220381
10
-17.5144440719
20
0.131979038059
10
-17.6689147125
20
0.130268855986
10
-17.8233853531
20
0.128558674156
10
-17.9778559938
20
0.12684849256
10
-18.1323266344
20
0.125138311192
10
-18.2867972751
20
0.123428130045
10
-18.4412679157
20
0.121717949113
10
-18.5957385563
20
0.12000776839
10
-18.750209197
20
0.11829758787
10
-18.9046798377
20
0.116587407546
10
-19.0591504783
20
0.114877227415
10
-19.213621119
20
0.11316704747
10
-19.3680917596
20
0.111456867706
10
-19.5225624003
20
0.109746688119
0
TEXT
8
text
10
-19.421794128
20
0.00678633096388
40
0.01
1

0
LINE
8
main_beam
10
-11.1049657234
20
0.394987583308
11
-11.0041656037
21
0.393136391151
0
LWPOLYLINE
8
main_beam_width
70
0
90
10
10
-11.1048950566
20
0.400035025693
10
-11.0936926164
20
0.39983647714
10
-11.0824901761
20
0.399637931405
10
-11.0712877358
20
0.399439388477
10
-11.0600852954
20
0.399240848344
10
-11.048882855
20
0.399042310993
10
-11.0376804145
20
0.398843776413
10
-11.026477974
20
0.398645244592
10
-11.0152755334
20
0.398446715518
10
-11.0040730927
20
0.398248189181
0
LWPOLYLINE
8
main_beam_width
70
0
90
10
10
-11.1050363905
20
0.389940112691
10
-11.0938391078
20
0.389727293914
10
-11.0826418252
20
0.38951447232
10
-11.0714445426
20
0.389301647923
10
-11.06024726
20
0.389088820734
10
-11.0490499775
20
0.388875990765
10
-11.037852695
20
0.388663158027
10
-11.0266554126
20
0.388450322532
10
-11.0154581303
20
0.388237484293
10
-11.0042608479
20
0.38802464332
0
TEXT
8
text
10
-11.1039651255
20
0.404970893568
40
0.01
1

0
LINE
8
main_beam
10
0.294906576435
20
-4.20563598849
11
0.428698134365
21
-11.2402949367
0
LWPOLYLINE
8
main_beam_width
70
0
90
28
10
0.306028862303
20
-4.20560658533
10
0.310729793314
20
-4.46614765675
10
0.315431047029
20
-4.72668872203
10
0.320132647179
20
-4.98722978071
10
0.32483461984
20
-5.24777083232
10
0.329536993729
20
-5.50831187629
10
0.334239800537
20
-5.76885291203
10
0.338943075323
20
-6.02939393887
10
0.343646856958
20
-6.28993495607
10
0.348351188648
20
-6.55047596281
10
0.353056118542
20
-6.81101695817
10
0.357761700441
20
-7.07155794113
10
0.362467994629
20
-7.33209891055
10
0.367175068851
20
-7.59263986512
10
0.371882999468
20
-7.85318080341
10
0.376591872824
20
-8.11372172378
10
0.381301786872
20
-8.37426262434
10
0.386012853111
20
-8.634803503
10
0.390725198913
20
-8.89534435732
10
0.395438970307
20
-9.15588518452
10
0.400154335349
20
-9.41642598142
10
0.404871488187
20
-9.67696674431
10
0.409590653996
20
-9.93750746892
10
0.414312094979
20
-10.1980481503
10
0.419036117673
20
-10.4585887825
10
0.423763081848
20
-10.7191293588
10
0.428493411345
20
-10.9796698711
10
0.433227607232
20
-11.2402103098
0
LWPOLYLINE
8
main_beam_width
70
0
90
28
10
0.283783430143
20
-4.2056401449
10
0.28899301936
20
-4.46618596902
10
0.294202285868
20
-4.72673179927
10
0.299411205938
20
-4.98727763612
10
0.304619753493
20
-5.24782348005
10
0.309827899813
20
-5.50836933161
10
0.315035613207
20
-5.7689151914
10
0.320242858614
20
-6.02946106009
10
0.325449597161
20
-6.29000693843
10
0.33065578564
20
-6.55055282722
10
0.335861375899
20
-6.8110987274
10
0.341066314135
20
-7.07164463997
10
0.34627054006
20
-7.33219056609
10
0.351473985923
20
-7.59273650705
10
0.356676575359
20
-7.8532824643
10
0.361878222018
20
-8.11382843947
10
0.36707882794
20
-8.37437443444
10
0.372278281614
20
-8.63492045133
10
0.37747645566
20
-8.89546649255
10
0.382673204033
20
-9.15601256088
10
0.387868358661
20
-9.41655865953
10
0.393061725377
20
-9.67710479218
10
0.398253078979
20
-9.93765096312
10
0.403442157232
20
-10.1981971773
10
0.408628653562
20
-10.4587434407
10
0.413812208149
20
-10.7192897599
10
0.418992397092
20
-10.9798361432
10
0.424168719246
20
-11.2403826
0
TEXT
8
text
10
0.436794778964
20
-11.1401228631
40
0.01
1

0
LINE
8
main_beam
10
53.2140506187
20
-0.00757783943223
11
2991.57524384
21
-0.00757784090748
0
LWPOLYLINE
8
main_beam_width
70
0
90
21
10
53.2140506187
20
0.0829417910881
10
200.13211028
20
0.078250833911
10
347.050169941
20
0.073768455455
10
493.968229602
20
0.0695310386656
10
640.886289263
20
0.0655811609478
10
787.804348924
20
0.0619678323023
10
934.722408585
20
0.0587460811585
10
1081.64046825
20
0.0559754869395
10
1228.55852791
20
0.0537172583155
10
1375.47658757
20
0.0520296566332
10
1522.39464723
20
0.0509620532091
10
1669.31270689
20
0.0505486204408
10
1816.23076655
20
0.0508032577449
10
1963.14882621
20
0.0517173588632
10
2110.06688587
20
0.0532612059006
10
2256.98494553
20
0.0553884943959
10
2403.90300519
20
0.0580425066277
10
2550.82106486
20
0.0611622602239
10
2697.73912452
20
0.064687461002
10
2844.65718418
20
0.0685618142005
10
2991.57524384
20
0.0727348054387
0
LWPOLYLINE
8
main_beam_width
70
0
90
21
10
53.2140506187
20
-0.0980974699526
10
200.13211028
20
-0.093406512923
10
347.050169941
20
-0.0889241346145
10
493.968229602
20
-0.0846867179726
10
640.886289263
20
-0.0807368404023
10
787.804348924
20
-0.0771235119044
10
934.722408585
20
-0.0739017609081
10
1081.64046825
20
-0.0711311668366
10
1228.55852791
20
-0.0688729383602
10
1375.47658757
20
-0.0671853368254
10
1522.39464723
20
-0.0661177335488
10
1669.31270689
20
-0.065704300928
10
1816.23076655
20
-0.0659589383797
10
1963.14882621
20
-0.0668730396455
10
2110.06688587
20
-0.0684168868304
10
2256.98494553
20
-0.0705441754733
10
2403.90300519
20
-0.0731981878526
10
2550.82106486
20
-0.0763179415963
10
2697.73912452
20
-0.0798431425219
10
2844.65718418
20
-0.083717495868
10
2991.57524384
20
-0.0878904872536
0
TEXT
8
text
10
2991.47524384
20
0.00242215909257
40
0.01
1

0
LINE
8
main_beam
10
0.428698134365
20
-11.2402949367
11
0.430621666303
21
-11.3414327915
0
LWPOLYLINE
8
main_beam_width
70
0
90
10
10
0.433227607311
20
-11.2402103098
10
0.433432446016
20
-11.2514456913
10
0.433637288682
20
-11.2626810727
10
0.433842135334
20
-11.273916454
10
0.434046985995
20
-11.2851518353
10
0.434251840688
20
-11.2963872165
10
0.434456699438
20
-11.3076225976
10
0.434661562268
20
-11.3188579786
10
0.434866429203
20
-11.3300933595
10
0.435071300267
20
-11.3413287404
0
LWPOLYLINE
8
main_beam_width
70
0
90
10
10
0.424168719167
20
-11.2403826
10
0.424391328983
20
-11.2516219599
10
0.424613934833
20
-11.2628613199
10
0.424836536695
20
-11.27410068
10
0.425059134546
20
-11.2853400401
10
0.42528172836
20
-11.2965794003
10
0.425504318115
20
-11.3078187606
10
0.425726903787
20
-11.319058121
10
0.42594948535
20
-11.3302974814
10
0.426172062782
20
-11.341536842
0
TEXT
8
text
10
0.438718310902
20
-11.2412607179
40
0.01
1

0
LINE
8
main_beam
10
0.428698134365
20
-11.2402949367
11
0.430621666303
21
-11.3414327915
0
LWPOLYLINE
8
main_beam_width
70
0
90
10
10
0.433227607311
20
-11.2402103098
10
0.433432446016
20
-11.2514456913
10
0.433637288682
20
-11.2626810727
10
0.433842135334
20
-11.273916454
10
0.434046985995
20
-11.2851518353
10
0.434251840688
20
-11.2963872165
10
0.434456699438
20
-11.3076225976
10
0.434661562268
20
-11.3188579786
10
0.434866429203
20
-11.3300933595
10
0.435071300267
20
-11.3413287404
0
LWPOLYLINE
8
main_beam_width
70
0
90
10
10
0.424168719167
20
-11.2403826
10
0.424391328982
20
-11.2516219599
10
0.424613934833
20
-11.2628613199
10
0.424836536695
20
-11.27410068
10
0.425059134546
20
-11.2853400401
10
0.42528172836
20
-11.2965794003
10
0.425504318115
20
-11.3078187606
10
0.425726903787
20
-11.319058121
10
0.42594948535
20
-11.3302974814
10
0.426172062782
20
-11.341536842
0
TEXT
8
text
10
0.438718310902
20
-11.2412607179
40
0.01
1

0
LINE
8
main_beam
10
-0.0163934461315
20
49.8289176209
11
-0.0163934461315
21
49.928913509
0
LWPOLYLINE
8
main_beam_width
70
0
90
10
10
-0.107257335486
20
49.8289841001
10
-0.107256922466
20
49.8400873678
10
-0.107256509448
20
49.8511906355
10
-0.10725609643
20
49.8622939031
10
-0.107255683412
20
49.8733971708
10
-0.107255270395
20
49.8845004384
10
-0.107254857378
20
49.8956037061
10
-0.107254444362
20
49.9067069737
10
-0.107254031346
20
49.9178102414
10
-0.107253618331
20
49.928913509
0
LWPOLYLINE
8
main_beam_width
70
0
90
10
10
0.0744704481684
20
49.8288511416
10
0.0744700345997
20
49.8399691825
10
0.0744696210315
20
49.8510872233
10
0.0744692074638
20
49.8622052641
10
0.0744687938966
20
49.8733233049
10
0.0744683803299
20
49.8844413458
10
0.0744679667636
20
49.8955593866
10
0.0744675531979
20
49.9066774274
10
0.0744671396326
20
49.9177954682
10
0.0744667260677
20
49.928913509
0
TEXT
8
text
10
-0.0263934461315
20
49.828913509
40
0.01
1

0
LINE
8
main_beam
10
53.2140506187
20
-0.00757783943223
11
53.1140547305
21
-0.00757783943246
0
LWPOLYLINE
8
main_beam_width
70
0
90
10
10
53.2140506187
20
-0.0980974699526
10
53.2029326054
20
-0.0980981152573
10
53.191814592
20
-0.0980987605625
10
53.1806965787
20
-0.0980994058682
10
53.1695785654
20
-0.0981000511743
10
53.1584605521
20
-0.098100696481
10
53.1473425388
20
-0.0981013417881
10
53.1362245255
20
-0.0981019870957
10
53.1251065122
20
-0.0981026324038
10
53.1139884989
20
-0.0981032777124
0
LWPOLYLINE
8
main_beam_width
70
0
90
10
10
53.2140506187
20
0.0829417910881
10
53.2029473235
20
0.0829424355385
10
53.1918440283
20
0.0829430799894
10
53.1807407332
20
0.0829437244408
10
53.169637438
20
0.0829443688926
10
53.1585341428
20
0.082945013345
10
53.1474308476
20
0.0829456577978
10
53.1363275525
20
0.0829463022511
10
53.1252242573
20
0.0829469467048
10
53.1141209621
20
0.0829475911591
0
TEXT
8
text
10
53.2140547305
20
-0.0175778394322
40
0.01
1

0
LINE
8
main_beam
10
0.294906576435
20
-4.20563598849
11
0.428698134365
21
-11.2402949367
0
LWPOLYLINE
8
main_beam_width
70
0
90
28
10
0.306028862303
20
-4.20560658533
10
0.310729793314
20
-4.46614765675
10
0.315431047029
20
-4.72668872203
10
0.320132647179
20
-4.98722978071
10
0.32483461984
20
-5.24777083232
10
0.329536993729
20
-5.50831187629
10
0.334239800537
20
-5.76885291203
10
0.338943075323
20
-6.02939393887
10
0.343646856958
20
-6.28993495607
10
0.348351188648
20
-6.55047596281
10
0.353056118542
20
-6.81101695817
10
0.357761700441
20
-7.07155794113
10
0.362467994629
20
-7.33209891055
10
0.367175068851
20
-7.59263986512
10
0.371882999468
20
-7.85318080341
10
0.376591872824
20
-8.11372172378
10
0.381301786872
20
-8.37426262434
10
0.386012853111
20
-8.634803503
10
0.390725198913
20
-8.89534435732
10
0.395438970307
20
-9.15588518452
10
0.400154335349
20
-9.41642598142
10
0.404871488187
20
-9.67696674431
10
0.409590653996
20
-9.93750746892
10
0.414312094979
20
-10.1980481503
10
0.419036117673
20
-10.4585887825
10
0.423763081848
20
-10.7191293588
10
0.428493411345
20
-10.9796698711
10
0.433227607232
20
-11.2402103098
0
LWPOLYLINE
8
main_beam_width
70
0
90
28
10
0.283783430143
20
-4.2056401449
10
0.28899301936
20
-4.46618596902
10
0.294202285868
20
-4.72673179927
10
0.299411205938
20
-4.98727763612
10
0.304619753493
20
-5.24782348005
10
0.309827899813
20
-5.50836933161
10
0.315035613207
20
-5.7689151914
10
0.320242858614
20
-6.02946106009
10
0.325449597161
20
-6.29000693843
10
0.33065578564
20
-6.55055282722
10
0.335861375899
20
-6.8110987274
10
0.341066314135
20
-7.07164463997
10
0.34627054006
20
-7.33219056609
10
0.351473985923
20
-7.59273650705
10
0.356676575359
20
-7.8532824643
10
0.361878222018
20
-8.11382843947
10
0.36707882794
20
-8.37437443444
10
0.372278281614
20
-8.63492045133
10
0.37747645566
20
-8.89546649255
10
0.382673204033
20
-9.15601256088
10
0.387868358661
20
-9.41655865953
10
0.393061725377
20
-9.67710479218
10
0.398253078979
20
-9.93765096312
10
0.403442157232
20
-10.1981971773
10
0.408628653562
20
-10.4587434407
10
0.413812208149
20
-10.7192897599
10
0.418992397092
20
-10.9798361432
10
0.424168719246
20
-11.2403826
0
TEXT
8
text
10
0.436794778964
20
-11.1401228631
40
0.01
1

0
LINE
8
main_beam
10
53.1140547305
20
-0.00757783943223
11
53.2140506187
21
-0.00757783943223
0
LWPOLYLINE
8
main_beam_width
70
0
90
10
10
53.1141209606
20
0.0829455127356
10
53.1252242559
20
0.0829450992173
10
53.1363275513
20
0.0829446856995
10
53.1474308466
20
0.0829442721821
10
53.158534142
20
0.0829438586653
10
53.1696374373
20
0.0829434451489
10
53.1807407326
20
0.082943031633
10
53.191844028
20
0.0829426181175
10
53.2029473233
20
0.0829422046026
10
53.2140506187
20
0.0829417910881
0
LWPOLYLINE
8
main_beam_width
70
0
90
10
10
53.1139885004
20
-0.0981011965333
10
53.1251065135
20
-0.0981007824669
10
53.1362245267
20
-0.0981003684009
10
53.1473425398
20
-0.0980999543354
10
53.158460553
20
-0.0980995402704
10
53.1695785661
20
-0.0980991262059
10
53.1806965792
20
-0.0980987121418
10
53.1918145924
20
-0.0980982980783
10
53.2029326055
20
-0.0980978840152
10
53.2140506187
20
-0.0980974699526
0
TEXT
8
text
10
53.1140506187
20
0.00242216056777
40
0.01
1

0
LINE
8
main_beam
10
3.5527136788e-15
20
8.49320613838e-15
11
0.0249447961725
21
-0.0880900821485
0
LWPOLYLINE
8
main_beam_width
70
0
90
10
10
0.093528341796
20
0.0934866500186
10
0.0963066337058
20
0.0836765228077
10
0.0990849256159
20
0.0738663955969
10
0.101863217526
20
0.0640562683861
10
0.104641509436
20
0.0542461411753
10
0.107419801347
20
0.0444360139646
10
0.110198093258
20
0.034625886754
10
0.112976385169
20
0.0248157595434
10
0.11575467708
20
0.0150056323329
10
0.118532968991
20
0.00519550512238
0
LWPOLYLINE
8
main_beam_width
70
0
90
10
10
-0.0935315125403
20
-0.0934898193495
10
-0.0907665154837
20
-0.103255264042
10
-0.0880015184272
20
-0.113020708735
10
-0.0852365213709
20
-0.122786153428
10
-0.0824715243148
20
-0.132551598121
10
-0.0797065272589
20
-0.142317042814
10
-0.0769415302032
20
-0.152082487506
10
-0.0741765331477
20
-0.161847932199
10
-0.0714115360923
20
-0.171613376893
10
-0.0686465390371
20
-0.181378821586
0
TEXT
8
text
10
0.00732042548497
20
0.0108512214505
40
0.01
1

0
LINE
8
main_beam
10
-12.1047591778
20
0.415311177056
11
-11.1049657234
21
0.394987583308
0
LWPOLYLINE
8
main_beam_width
70
0
90
10
10
-12.1047011141
20
0.419458435445
10
-11.9936116213
20
0.417296879518
10
-11.8825221084
20
0.415136308215
10
-11.7714325768
20
0.412976656601
10
-11.6603430278
20
0.410817864793
10
-11.5492534624
20
0.408659877536
10
-11.4381638817
20
0.40650264382
10
-11.3270742866
20
0.404346116517
10
-11.2159846781
20
0.402190252061
10
-11.1048950569
20
0.400035010142
0
LWPOLYLINE
8
main_beam_width
70
0
90
10
10
-12.1048172422
20
0.411163873282
10
-11.9937304119
20
0.408809073456
10
-11.8826436015
20
0.406453289015
10
-11.7715568099
20
0.404096584896
10
-11.6604700358
20
0.40173902098
10
-11.549383278
20
0.399380652522
10
-11.4382965355
20
0.397021530532
10
-11.3272098074
20
0.394661702137
10
-11.2161230927
20
0.392301210904
10
-11.1050363908
20
0.38994009714
0
TEXT
8
text
10
-11.2047418329
20
0.407017877227
40
0.01
1

0
LINE
8
main_beam
10
1.7763568394e-14
20
1.85962356625e-14
11
0.0249447961725
21
-0.0880900821484
0
LWPOLYLINE
8
main_beam_width
70
0
90
10
10
0.093528341796
20
0.0934866500186
10
0.0963066337059
20
0.0836765228077
10
0.0990849256159
20
0.0738663955969
10
0.101863217526
20
0.0640562683861
10
0.104641509436
20
0.0542461411753
10
0.107419801347
20
0.0444360139646
10
0.110198093258
20
0.034625886754
10
0.112976385169
20
0.0248157595434
10
0.11575467708
20
0.0150056323329
10
0.118532968991
20
0.00519550512239
0
LWPOLYLINE
8
main_beam_width
70
0
90
10
10
-0.0935315125403
20
-0.0934898193495
10
-0.0907665154837
20
-0.103255264042
10
-0.0880015184272
20
-0.113020708735
10
-0.0852365213709
20
-0.122786153428
10
-0.0824715243148
20
-0.132551598121
10
-0.0797065272589
20
-0.142317042813
10
-0.0769415302032
20
-0.152082487506
10
-0.0741765331476
20
-0.161847932199
10
-0.0714115360923
20
-0.171613376893
10
-0.0686465390371
20
-0.181378821586
0
TEXT
8
text
10
0.00732042548498
20
0.0108512214506
40
0.01
1

0
LINE
8
main_beam
10
0.0882163902143
20
-0.0250230553011
11
1.86101134503e-14
21
1.86031745564e-14
0
LWPOLYLINE
8
main_beam_width
70
0
90
10
10
-0.00551647949482
20
-0.118452871634
10
-0.0152959276108
20
-0.115679199157
10
-0.0250753757268
20
-0.112905526681
10
-0.0348548238428
20
-0.110131854204
10
-0.044634271959
20
-0.107358181728
10
-0.0544137200751
20
-0.104584509252
10
-0.0641931681913
20
-0.101810836776
10
-0.0739726163076
20
-0.0990371643003
10
-0.083752064424
20
-0.0962634918248
10
-0.0935315125403
20
-0.0934898193495
0
LWPOLYLINE
8
main_beam_width
70
0
90
10
10
0.18194607194
20
0.0684035833555
10
0.172121879701
20
0.0711905907617
10
0.162297687463
20
0.0739775981682
10
0.152473495225
20
0.0767646055748
10
0.142649302986
20
0.0795516129817
10
0.132825110748
20
0.0823386203887
10
0.12300091851
20
0.0851256277959
10
0.113176726272
20
0.0879126352033
10
0.103352534034
20
0.0906996426109
10
0.093528341796
20
0.0934866500186
0
TEXT
8
text
10
0.0934756481342
20
-0.0369093918387
40
0.01
1

0
LINE
8
main_beam
10
0.0249447961725
20
-0.0880900821485
11
0.0524719978755
21
-19.3572204993
0
LWPOLYLINE
8
main_beam_width
70
0
90
10
10
0.11852950686
20
0.00519205418517
10
0.121719647128
20
-2.14624915829
10
0.124909821547
20
-4.29769037071
10
0.12810002999
20
-6.44913158309
10
0.131290272332
20
-8.60057279542
10
0.134480548445
20
-10.7520140077
10
0.137670858205
20
-12.9034552199
10
0.140861201487
20
-15.0548964321
10
0.144051578167
20
-17.2063376442
10
0.147241988121
20
-19.3577788563
0
LWPOLYLINE
8
main_beam_width
70
0
90
10
10
-0.068650001716
20
-0.181382273069
10
-0.0657218998501
20
-2.31193957148
10
-0.0627938314663
20
-4.44249686993
10
-0.0598657964412
20
-6.57305416844
10
-0.0569377946521
20
-8.70361146699
10
-0.0540098259766
20
-10.8341687656
10
-0.051081890293
20
-12.9647260642
10
-0.0481539874803
20
-15.0952833629
10
-0.0452261174179
20
-17.2258406617
10
-0.0422982799856
20
-19.3563979605
0
TEXT
8
text
10
0.0623291313359
20
-19.2572063157
40
0.01
1

0
LINE
8
main_beam
10
1.06581410364e-14
20
1.21014309684e-14
11
-0.0163934461315
21
49.8289176209
0
LWPOLYLINE
8
main_beam_width
70
0
90
10
10
-0.0935350016785
20
-0.0934933069323
10
-0.0950587588917
20
5.4534486275
10
-0.0965827473113
20
11.0003905619
10
-0.0981069691896
20
16.5473324961
10
-0.0996314268069
20
22.0942744303
10
-0.101156122471
20
27.6412163645
10
-0.102681058519
20
33.1881582985
10
-0.104206237315
20
38.7351002325
10
-0.105731661255
20
44.2820421663
10
-0.107257332762
20
49.8289841001
0
LWPOLYLINE
8
main_beam_width
70
0
90
10
10
0.0935248532134
20
0.0934831629911
10
0.0914067580469
20
5.61963516031
10
0.0892888924234
20
11.1457871577
10
0.0871712585709
20
16.6719391552
10
0.0850538587446
20
22.1980911527
10
0.0829366952275
20
27.7242431503
10
0.0808197703302
20
33.250395148
10
0.0787030863918
20
38.7765471458
10
0.0765866457802
20
44.3026991437
10
0.0744704508924
20
49.8288511416
0
TEXT
8
text
10
-0.0263605461295
20
49.7289143364
40
0.01
1

0
LINE
8
main_beam
10
-19.5219461967
20
0.0151267826399
11
1.06581410364e-14
21
1.21239823736e-14
0
LWPOLYLINE
8
main_beam_width
70
0
90
10
10
-19.5225624157
20
0.10974969219
10
-17.3429971637
20
0.107942161595
10
-15.1634319117
20
0.106134665312
10
-12.9838666596
20
0.104327203468
10
-10.8043014076
20
0.102519776196
10
-8.62473615546
20
0.100712383625
10
-6.44517090333
20
0.0989050258862
10
-4.26560565118
20
0.0970977031126
10
-2.08604039899
20
0.0952904154364
10
0.0935248532134
20
0.0934831629911
0
LWPOLYLINE
8
main_beam_width
70
0
90
10
10
-19.5210666132
20
-0.0794962415411
10
-17.3624519896
20
-0.0810513352328
10
-15.203837366
20
-0.0826064625779
10
-13.0452227424
20
-0.0841616237022
10
-10.8866081189
20
-0.0857168187321
10
-8.72799349541
20
-0.0872720477946
10
-6.56937887194
20
-0.0888273110173
10
-4.41076424849
20
-0.0903826085286
10
-2.25214962507
20
-0.0919379404571
10
-0.0935350016785
20
-0.0934933069323
0
TEXT
8
text
10
-0.0999922213781
20
0.0100774830127
40
0.01
1

0
LINE
8
main_beam
10
53.1140547305
20
-0.00757783943223
11
0.0882163902143
21
-0.0250230553011
0
LWPOLYLINE
8
main_beam_width
70
0
90
10
10
53.1139885004
20
-0.0981011992504
10
47.2118208883
20
-0.100361780703
10
41.3096532763
20
-0.102622645429
10
35.4074856644
20
-0.104883790464
10
29.5053180526
20
-0.107145212881
10
23.6031504408
20
-0.109406909794
10
17.7009828292
20
-0.111668878353
10
11.7988152176
20
-0.113931115744
10
5.89664760616
20
-0.116193619192
10
-0.00552000521498
20
-0.118456385955
0
LWPOLYLINE
8
main_beam_width
70
0
90
10
10
53.1141209606
20
0.0829455100186
10
47.2327678039
20
0.0813282516666
10
41.3514146471
20
0.0797112746034
10
35.4700614901
20
0.0780945758959
10
29.5887083331
20
0.076478152649
10
23.707355176
20
0.0748620020053
10
17.8260020189
20
0.0732461211445
10
11.9446488616
20
0.0716305072824
10
6.06329570423
20
0.0700151576709
10
0.181942546784
20
0.0684000695974
0
TEXT
8
text
10
0.188219674748
20
-0.0349901552991
40
0.01
1

0
LINE
8
main_beam
10
0.0882163902143
20
-0.0250230553011
11
53.1140547305
21
-0.00757783943223
0
LWPOLYLINE
8
main_beam_width
70
0
90
10
10
0.181942546784
20
0.0684000695973
10
6.06329570423
20
0.0700151576709
10
11.9446488616
20
0.0716305072823
10
17.8260020189
20
0.0732461211444
10
23.707355176
20
0.0748620020053
10
29.5887083331
20
0.076478152649
10
35.4700614901
20
0.0780945758959
10
41.3514146471
20
0.0797112746034
10
47.2327678039
20
0.0813282516666
10
53.1141209606
20
0.0829455100186
0
LWPOLYLINE
8
main_beam_width
70
0
90
10
10
-0.005520005215
20
-0.118456385955
10
5.89664760616
20
-0.116193619192
10
11.7988152176
20
-0.113931115744
10
17.7009828292
20
-0.111668878353
10
23.6031504408
20
-0.109406909794
10
29.5053180526
20
-0.107145212881
10
35.4074856644
20
-0.104883790464
10
41.3096532763
20
-0.102622645429
10
47.2118208883
20
-0.100361780703
10
53.1139885004
20
-0.0981011992504
0
TEXT
8
text
10
53.014051446
20
0.00238926056573
40
0.01
1

0
LINE
8
main_beam
10
0.430621666303
20
-11.3414327915
11
0.432346754344
21
-11.4425742258
0
LWPOLYLINE
8
main_beam_width
70
0
90
10
10
0.435071317035
20
-11.34132874
10
0.435250275152
20
-11.3525700227
10
0.435429242082
20
-11.3638113052
10
0.435608217902
20
-11.3750525876
10
0.43578720269
20
-11.3862938698
10
0.435966196524
20
-11.3975351518
10
0.436145199482
20
-11.4087764337
10
0.436324211645
20
-11.4200177155
10
0.436503233093
20
-11.4312589971
10
0.436682263909
20
-11.4425002785
0
LWPOLYLINE
8
main_beam_width
70
0
90
10
10
0.426172079549
20
-11.3415368416
10
0.426376467183
20
-11.3527714334
10
0.426580846012
20
-11.3640060253
10
0.426785215961
20
-11.3752406174
10
0.426989576952
20
-11.3864752096
10
0.427193928907
20
-11.397709802
10
0.427398271748
20
-11.4089443945
10
0.427602605394
20
-11.4201789872
10
0.427806929765
20
-11.4314135801
10
0.428011244779
20
-11.4426481731
0
TEXT
8
text
10
0.440639928616
20
-11.3424182311
40
0.01
1

0
LINE
8
main_beam
10
0.430621666303
20
-11.3414327915
11
0.432346754344
21
-11.4425742258
0
LWPOLYLINE
8
main_beam_width
70
0
90
10
10
0.435071317035
20
-11.34132874
10
0.435250275152
20
-11.3525700227
10
0.435429242082
20
-11.3638113052
10
0.435608217902
20
-11.3750525876
10
0.43578720269
20
-11.3862938698
10
0.435966196524
20
-11.3975351518
10
0.436145199482
20
-11.4087764337
10
0.436324211645
20
-11.4200177155
10
0.436503233093
20
-11.4312589971
10
0.436682263909
20
-11.4425002785
0
LWPOLYLINE
8
main_beam_width
70
0
90
10
10
0.426172079549
20
-11.3415368416
10
0.426376467183
20
-11.3527714334
10
0.426580846012
20
-11.3640060253
10
0.426785215961
20
-11.3752406174
10
0.426989576952
20
-11.3864752096
10
0.427193928907
20
-11.397709802
10
0.427398271748
20
-11.4089443945
10
0.427602605394
20
-11.4201789872
10
0.427806929765
20
-11.4314135801
10
0.428011244779
20
-11.4426481731
0
TEXT
8
text
10
0.440639928616
20
-11.3424182311
40
0.01
1

0
LINE
8
Mirrors
10
0.177470354641
20
-19.3579013846
11
0.176745800621
21
-19.4573533265
0
LINE
8
Mirrors
10
-0.0732555119395
20
-19.4566228164
11
-0.0725230108666
21
-19.3560800658
0
LINE
8
Mirrors
10
-0.0725958636213
20
-19.3660798004
11
0.177397501886
21
-19.3679011193
0
LWPOLYLINE
8
Mirrors
70
0
90
60
10
-0.0725230108666
20
-19.3560800658
10
-0.0682128938858
20
-19.3561270412
10
-0.0639027729239
20
-19.3561734701
10
-0.059592647981
20
-19.3562193526
10
-0.055282519057
20
-19.3562646886
10
-0.0509723861519
20
-19.3563094783
10
-0.0466622492658
20
-19.3563537214
10
-0.0423521083987
20
-19.3563974182
10
-0.0380419635505
20
-19.3564405685
10
-0.0337318147213
20
-19.3564831724
10
-0.0294216619111
20
-19.3565252298
10
-0.0251115051198
20
-19.3565667408
10
-0.0208013443475
20
-19.3566077054
10
-0.0164911795942
20
-19.3566481236
10
-0.0121810108599
20
-19.3566879953
10
-0.0078708381446
20
-19.3567273205
10
-0.00356066144827
20
-19.3567660994
10
0.000749519229074
20
-19.3568043318
10
0.00505970388742
20
-19.3568420178
10
0.00936989252676
20
-19.3568791574
10
0.0136800851471
20
-19.3569157505
10
0.0179902817485
20
-19.3569517972
10
0.0223004823308
20
-19.3569872975
10
0.0266106868941
20
-19.3570222513
10
0.0309208954385
20
-19.3570566587
10
0.0352311079638
20
-19.3570905197
10
0.0395413244701
20
-19.3571238342
10
0.0438515449574
20
-19.3571566023
10
0.0481617694257
20
-19.357188824
10
0.052471997875
20
-19.3572204993
10
0.052471997875
20
-19.3572204993
10
0.0567822303052
20
-19.3572516281
10
0.0610924667165
20
-19.3572822105
10
0.0654027071088
20
-19.3573122465
10
0.069712951482
20
-19.3573417361
10
0.0740231998362
20
-19.3573706792
10
0.0783334521715
20
-19.3573990759
10
0.0826437084877
20
-19.3574269261
10
0.0869539687849
20
-19.35745423
10
0.0912642330631
20
-19.3574809874
10
0.0955745013223
20
-19.3575071983
10
0.0998847735625
20
-19.3575328629
10
0.104195049784
20
-19.357557981
10
0.108505329986
20
-19.3575825527
10
0.112815614169
20
-19.3576065779
10
0.117125902333
20
-19.3576300568
10
0.121436194479
20
-19.3576529891
10
0.125746490605
20
-19.3576753751
10
0.130056790712
20
-19.3576972146
10
0.1343670948
20
-19.3577185077
10
0.13867740287
20
-19.3577392544
10
0.14298771492
20
-19.3577594546
10
0.147298030952
20
-19.3577791084
10
0.151608350964
20
-19.3577982157
10
0.155918674957
20
-19.3578167766
10
0.160229002932
20
-19.3578347911
10
0.164539334887
20
-19.3578522592
10
0.168849670824
20
-19.3578691808
10
0.173160010742
20
-19.3578855559
10
0.177470354641
20
-19.3579013846
0
LINE
8
Mirrors
10
0.176745800621
20
-19.4573533265
11
-0.0732555119395
21
-19.4566228164
0
TEXT
8
text
10
0.0146094081138
20
-19.4194893983
40
0.025
1
SR3
0
LINE
8
Mirrors
10
2991.57524065
20
0.117422162689
11
2991.67469524
21
0.117422162689
0
LINE
8
Mirrors
10
2991.67578607
20
-0.132577837311
11
2991.57524065
21
-0.132577837311
0
LINE
8
Mirrors
10
2991.58524065
20
-0.132577837311
11
2991.58524065
21
0.117422162689
0
LWPOLYLINE
8
Mirrors
70
0
90
60
10
2991.57524065
20
-0.132577837311
10
2991.57524093
20
-0.128267492484
10
2991.5752412
20
-0.123957147656
10
2991.57524146
20
-0.119646802829
10
2991.57524171
20
-0.115336458001
10
2991.57524195
20
-0.111026113173
10
2991.57524218
20
-0.106715768346
10
2991.5752424
20
-0.102405423518
10
2991.57524261
20
-0.0980950786907
10
2991.57524281
20
-0.0937847338631
10
2991.575243
20
-0.0894743890355
10
2991.57524318
20
-0.0851640442079
10
2991.57524335
20
-0.0808536993803
10
2991.57524351
20
-0.0765433545527
10
2991.57524367
20
-0.0722330097252
10
2991.57524381
20
-0.0679226648976
10
2991.57524394
20
-0.06361232007
10
2991.57524406
20
-0.0593019752424
10
2991.57524417
20
-0.0549916304148
10
2991.57524428
20
-0.0506812855872
10
2991.57524437
20
-0.0463709407596
10
2991.57524445
20
-0.0420605959321
10
2991.57524453
20
-0.0377502511045
10
2991.57524459
20
-0.0334399062769
10
2991.57524464
20
-0.0291295614493
10
2991.57524469
20
-0.0248192166217
10
2991.57524472
20
-0.0205088717941
10
2991.57524475
20
-0.0161985269665
10
2991.57524476
20
-0.011888182139
10
2991.57524477
20
-0.00757783731137
10
2991.57524477
20
-0.00757783731137
10
2991.57524476
20
-0.00326749248378
10
2991.57524475
20
0.00104285234381
10
2991.57524472
20
0.00535319717139
10
2991.57524469
20
0.00966354199898
10
2991.57524464
20
0.0139738868266
10
2991.57524459
20
0.0182842316542
10
2991.57524453
20
0.0225945764817
10
2991.57524445
20
0.0269049213093
10
2991.57524437
20
0.0312152661369
10
2991.57524428
20
0.0355256109645
10
2991.57524417
20
0.0398359557921
10
2991.57524406
20
0.0441463006197
10
2991.57524394
20
0.0484566454473
10
2991.57524381
20
0.0527669902748
10
2991.57524367
20
0.0570773351024
10
2991.57524351
20
0.06138767993
10
2991.57524335
20
0.0656980247576
10
2991.57524318
20
0.0700083695852
10
2991.575243
20
0.0743187144128
10
2991.57524281
20
0.0786290592404
10
2991.57524261
20
0.0829394040679
10
2991.5752424
20
0.0872497488955
10
2991.57524218
20
0.0915600937231
10
2991.57524195
20
0.0958704385507
10
2991.57524171
20
0.100180783378
10
2991.57524146
20
0.104491128206
10
2991.5752412
20
0.108801473033
10
2991.57524093
20
0.113111817861
10
2991.57524065
20
0.117422162689
0
LINE
8
Mirrors
10
2991.67469524
20
0.117422162689
11
2991.67578607
21
-0.132577837311
0
TEXT
8
text
10
2991.57524065
20
-0.0200778373114
40
0.025
1
ETMX
0
LINE
8
Mirrors
10
-0.141393448252
20
2988.29010354
11
-0.141393448252
21
2988.38955813
0
LINE
8
Mirrors
10
0.108606551748
20
2988.39064896
11
0.108606551748
21
2988.29010354
0
LINE
8
Mirrors
10
0.108606551748
20
2988.30010354
11
-0.141393448252
21
2988.30010354
0
LWPOLYLINE
8
Mirrors
70
0
90
60
10
0.108606551748
20
2988.29010354
10
0.10429620692
20
2988.29010382
10
0.0999858620926
20
2988.29010409
10
0.0956755172651
20
2988.29010435
10
0.0913651724375
20
2988.2901046
10
0.0870548276099
20
2988.29010484
10
0.0827444827823
20
2988.29010507
10
0.0784341379547
20
2988.29010529
10
0.0741237931271
20
2988.2901055
10
0.0698134482995
20
2988.2901057
10
0.065503103472
20
2988.29010589
10
0.0611927586444
20
2988.29010607
10
0.0568824138168
20
2988.29010624
10
0.0525720689892
20
2988.2901064
10
0.0482617241616
20
2988.29010656
10
0.043951379334
20
2988.2901067
10
0.0396410345064
20
2988.29010683
10
0.0353306896789
20
2988.29010695
10
0.0310203448513
20
2988.29010706
10
0.0267100000237
20
2988.29010717
10
0.0223996551961
20
2988.29010726
10
0.0180893103685
20
2988.29010734
10
0.0137789655409
20
2988.29010742
10
0.00946862071334
20
2988.29010748
10
0.00515827588575
20
2988.29010753
10
0.000847931058164
20
2988.29010758
10
-0.00346241376942
20
2988.29010761
10
-0.00777275859701
20
2988.29010764
10
-0.0120831034246
20
2988.29010765
10
-0.0163934482522
20
2988.29010766
10
-0.0163934482522
20
2988.29010766
10
-0.0207037930798
20
2988.29010765
10
-0.0250141379074
20
2988.29010764
10
-0.0293244827349
20
2988.29010761
10
-0.0336348275625
20
2988.29010758
10
-0.0379451723901
20
2988.29010753
10
-0.0422555172177
20
2988.29010748
10
-0.0465658620453
20
2988.29010742
10
-0.0508762068729
20
2988.29010734
10
-0.0551865517005
20
2988.29010726
10
-0.059496896528
20
2988.29010717
10
-0.0638072413556
20
2988.29010706
10
-0.0681175861832
20
2988.29010695
10
-0.0724279310108
20
2988.29010683
10
-0.0767382758384
20
2988.2901067
10
-0.081048620666
20
2988.29010656
10
-0.0853589654936
20
2988.2901064
10
-0.0896693103211
20
2988.29010624
10
-0.0939796551487
20
2988.29010607
10
-0.0982899999763
20
2988.29010589
10
-0.102600344804
20
2988.2901057
10
-0.106910689631
20
2988.2901055
10
-0.111221034459
20
2988.29010529
10
-0.115531379287
20
2988.29010507
10
-0.119841724114
20
2988.29010484
10
-0.124152068942
20
2988.2901046
10
-0.128462413769
20
2988.29010435
10
-0.132772758597
20
2988.29010409
10
-0.137083103425
20
2988.29010382
10
-0.141393448252
20
2988.29010354
0
LINE
8
Mirrors
10
-0.141393448252
20
2988.38955813
11
0.108606551748
21
2988.39064896
0
TEXT
8
text
10
-0.0663934482522
20
2988.32760354
40
0.025
1
ETMY
0
LINE
8
Mirrors
10
0.134380236173
20
0.134320334
11
0.191123712967
21
0.0775515515999
0
LINE
8
Mirrors
10
-0.0780118527562
20
-0.190713855746
11
-0.134380236173
21
-0.134320334
0
LINE
8
Mirrors
10
-0.128724643163
20
-0.139978449208
11
0.140035829184
21
0.128662218793
0
LINE
8
Mirrors
10
-0.134380236173
20
-0.134320334
11
0.134380236173
21
0.134320334
0
LINE
8
Mirrors
10
0.191123712967
20
0.0775515515999
11
-0.0780118527562
21
-0.190713855746
0
TEXT
8
text
10
0.00827796505274
20
-0.0382905760365
40
0.02
1
BS
0
LINE
8
Mirrors
10
0.5536975177
20
-11.2390739385
11
0.555588693599
21
-11.3385105372
0
LINE
8
Mirrors
10
0.305654639007
20
-11.3443550459
11
0.303742720313
21
-11.2438278067
0
LINE
8
Mirrors
10
0.303932875043
20
-11.2538259986
11
0.55388767243
21
-11.2490721304
0
LWPOLYLINE
8
Mirrors
70
0
90
60
10
0.303742720313
20
-11.2438278067
10
0.308050795625
20
-11.243667492
10
0.31235892324
20
-11.2435099273
10
0.316667103156
20
-11.2433551125
10
0.320975335371
20
-11.2432030476
10
0.325283619884
20
-11.2430537325
10
0.329591956693
20
-11.2429071671
10
0.333900345796
20
-11.2427633513
10
0.338208787193
20
-11.242622285
10
0.342517280881
20
-11.2424839681
10
0.34682582686
20
-11.2423484007
10
0.351134425127
20
-11.2422155826
10
0.355443075683
20
-11.2420855137
10
0.359751778526
20
-11.2419581941
10
0.364060533655
20
-11.2418336236
10
0.368369341068
20
-11.2417118022
10
0.372678200766
20
-11.2415927298
10
0.376987112746
20
-11.2414764065
10
0.381296077009
20
-11.2413628321
10
0.385605093553
20
-11.2412520066
10
0.389914162378
20
-11.2411439301
10
0.394223283484
20
-11.2410386023
10
0.398532456869
20
-11.2409360235
10
0.402841682533
20
-11.2408361934
10
0.407150960476
20
-11.2407391121
10
0.411460290698
20
-11.2406447795
10
0.415769673198
20
-11.2405531957
10
0.420079107976
20
-11.2404643607
10
0.424388595031
20
-11.2403782744
10
0.428698134365
20
-11.2402949367
10
0.428698134365
20
-11.2402949367
10
0.433007725976
20
-11.2402143479
10
0.437317369865
20
-11.2401365077
10
0.441627066031
20
-11.2400614163
10
0.445936814476
20
-11.2399890736
10
0.450246615198
20
-11.2399194796
10
0.4545564682
20
-11.2398526344
10
0.45886637348
20
-11.239788538
10
0.463176331039
20
-11.2397271904
10
0.467486340878
20
-11.2396685916
10
0.471796402997
20
-11.2396127417
10
0.476106517397
20
-11.2395596407
10
0.480416684079
20
-11.2395092886
10
0.484726903043
20
-11.2394616854
10
0.48903717429
20
-11.2394168313
10
0.49334749782
20
-11.2393747262
10
0.497657873636
20
-11.2393353702
10
0.501968301738
20
-11.2392987634
10
0.506278782126
20
-11.2392649057
10
0.510589314803
20
-11.2392337973
10
0.514899899768
20
-11.2392054383
10
0.519210537025
20
-11.2391798286
10
0.523521226573
20
-11.2391569684
10
0.527831968414
20
-11.2391368578
10
0.532142762549
20
-11.2391194967
10
0.536453608981
20
-11.2391048854
10
0.54076450771
20
-11.2390930238
10
0.545075458739
20
-11.239083912
10
0.549386462068
20
-11.2390775502
10
0.5536975177
20
-11.2390739385
0
LINE
8
Mirrors
10
0.555588693599
20
-11.3385105372
11
0.305654639007
21
-11.3443550459
0
TEXT
8
text
10
0.392170892655
20
-11.3039418321
40
0.025
1
SRM
0
LINE
8
Mirrors
10
0.16990431287
20
-4.20422992896
11
0.169754267021
21
-4.104775461
0
LINE
8
Mirrors
10
0.419752336771
20
-4.10330745275
11
0.419904028353
21
-4.20385275717
0
LINE
8
Mirrors
10
0.419888941481
20
-4.19385276855
11
0.169889225998
21
-4.19422994034
0
LWPOLYLINE
8
Mirrors
70
0
90
60
10
0.419904028353
20
-4.20385275717
10
0.415593851513
20
-4.20396735595
10
0.411283668949
20
-4.20407815963
10
0.406973480659
20
-4.20418516846
10
0.402663286644
20
-4.20428838266
10
0.398353086904
20
-4.20438780247
10
0.39404288144
20
-4.2044834281
10
0.389732670253
20
-4.20457525976
10
0.385422453342
20
-4.20466329764
10
0.381112230707
20
-4.20474754193
10
0.376802002349
20
-4.20482799282
10
0.372491768269
20
-4.20490465048
10
0.368181528466
20
-4.20497751507
10
0.36387128294
20
-4.20504658674
10
0.359561031693
20
-4.20511186564
10
0.355250774723
20
-4.2051733519
10
0.350940512032
20
-4.20523104566
10
0.346630243619
20
-4.20528494703
10
0.342319969485
20
-4.20533505613
10
0.33800968963
20
-4.20538137304
10
0.333699404054
20
-4.20542389788
10
0.329389112757
20
-4.20546263071
10
0.325078815739
20
-4.20549757162
10
0.320768513
20
-4.20552872066
10
0.31645820454
20
-4.20555607791
10
0.31214789036
20
-4.2055796434
10
0.30783757046
20
-4.20559941718
10
0.303527244838
20
-4.20561539927
10
0.299216913497
20
-4.2056275897
10
0.294906576435
20
-4.20563598849
10
0.294906576435
20
-4.20563598849
10
0.290596233653
20
-4.20564059563
10
0.28628588515
20
-4.20564141112
10
0.281975530927
20
-4.20563843495
10
0.277665170983
20
-4.2056316671
10
0.273354805319
20
-4.20562110753
10
0.269044433934
20
-4.20560675621
10
0.264734056829
20
-4.20558861308
10
0.260423674003
20
-4.2055666781
10
0.256113285456
20
-4.20554095119
10
0.251802891188
20
-4.20551143228
10
0.247492491199
20
-4.20547812129
10
0.243182085489
20
-4.20544101812
10
0.238871674057
20
-4.20540012267
10
0.234561256904
20
-4.20535543484
10
0.230250834029
20
-4.20530695449
10
0.225940405432
20
-4.20525468152
10
0.221629971114
20
-4.20519861577
10
0.217319531073
20
-4.20513875711
10
0.213009085309
20
-4.20507510537
10
0.208698633822
20
-4.20500766041
10
0.204388176613
20
-4.20493642204
10
0.20007771368
20
-4.20486139008
10
0.195767245023
20
-4.20478256435
10
0.191456770643
20
-4.20469994464
10
0.187146290538
20
-4.20461353076
10
0.182835804709
20
-4.20452332248
10
0.178525313154
20
-4.20442931957
10
0.174214815875
20
-4.20433152182
10
0.16990431287
20
-4.20422992896
0
LINE
8
Mirrors
10
0.169754267021
20
-4.104775461
11
0.419752336771
21
-4.10330745275
0
TEXT
8
text
10
0.257328736254
20
-4.16654139997
40
0.025
1
SR2
0
LINE
8
Mirrors
10
-11.0072778182
20
0.268172469155
11
-11.1067156319
21
0.26999864259
0
LINE
8
Mirrors
10
-11.1032158149
20
0.519976524026
11
-11.0026873473
21
0.518130320756
0
LINE
8
Mirrors
10
-11.0126856614
20
0.518313939592
11
-11.0172761323
21
0.26835608799
0
LWPOLYLINE
8
Mirrors
70
0
90
60
10
-11.0026873473
20
0.518130320756
10
-11.0027111192
20
0.51381968568
10
-11.0027368344
20
0.509509086292
10
-11.0027644927
20
0.505198522591
10
-11.0027940943
20
0.500887994576
10
-11.002825639
20
0.496577502248
10
-11.0028591269
20
0.492267045605
10
-11.0028945579
20
0.487956624648
10
-11.0029319319
20
0.483646239375
10
-11.002971249
20
0.479335889786
10
-11.0030125092
20
0.475025575881
10
-11.0030557123
20
0.470715297659
10
-11.0031008584
20
0.46640505512
10
-11.0031479475
20
0.462094848263
10
-11.0031969796
20
0.457784677089
10
-11.0032479545
20
0.453474541597
10
-11.0033008724
20
0.449164441785
10
-11.0033557331
20
0.444854377656
10
-11.0034125368
20
0.440544349207
10
-11.0034712833
20
0.436234356438
10
-11.0035319726
20
0.43192439935
10
-11.0035946048
20
0.427614477943
10
-11.0036591799
20
0.423304592215
10
-11.0037256977
20
0.418994742167
10
-11.0037941584
20
0.414684927799
10
-11.0038645618
20
0.410375149111
10
-11.0039369081
20
0.406065406102
10
-11.0040111972
20
0.401755698772
10
-11.004087429
20
0.397446027122
10
-11.0041656037
20
0.393136391151
10
-11.0041656037
20
0.393136391151
10
-11.0042457211
20
0.38882679086
10
-11.0043277814
20
0.384517226248
10
-11.0044117844
20
0.380207697315
10
-11.0044977302
20
0.375898204062
10
-11.0045856189
20
0.371588746489
10
-11.0046754503
20
0.367279324594
10
-11.0047672246
20
0.36296993838
10
-11.0048609416
20
0.358660587846
10
-11.0049566015
20
0.354351272991
10
-11.0050542043
20
0.350041993817
10
-11.0051537499
20
0.345732750323
10
-11.0052552383
20
0.34142354251
10
-11.0053586697
20
0.337114370378
10
-11.0054640439
20
0.332805233927
10
-11.0055713611
20
0.328496133157
10
-11.0056806211
20
0.32418706807
10
-11.0057918241
20
0.319878038664
10
-11.0059049701
20
0.315569044941
10
-11.0060200591
20
0.311260086901
10
-11.006137091
20
0.306951164544
10
-11.006256066
20
0.30264227787
10
-11.0063769841
20
0.298333426881
10
-11.0064998452
20
0.294024611577
10
-11.0066246494
20
0.289715831957
10
-11.0067513968
20
0.285407088023
10
-11.0068800873
20
0.281098379776
10
-11.007010721
20
0.276789707215
10
-11.007143298
20
0.272481070341
10
-11.0072778182
20
0.268172469155
0
LINE
8
Mirrors
10
-11.1067156319
20
0.26999864259
11
-11.1032158149
21
0.519976524026
0
TEXT
8
text
10
-11.0924741531
20
0.381569489132
40
0.025
1
PRM
0
LINE
8
Mirrors
10
-19.5207284568
20
-0.109867496863
11
-19.6201799315
21
-0.110653559505
0
LINE
8
Mirrors
10
-19.6232466688
20
0.139330010053
11
-19.5227043905
21
0.140124694387
0
LINE
8
Mirrors
10
-19.5327040782
20
0.140045657038
11
-19.5307281445
21
-0.109946534212
0
LWPOLYLINE
8
Mirrors
70
0
90
60
10
-19.5227043905
20
0.140124694387
10
-19.522685896
20
0.135814361102
10
-19.5226668549
20
0.131504032136
10
-19.5226472675
20
0.12719370749
10
-19.5226271336
20
0.122883387162
10
-19.5226064533
20
0.118573071153
10
-19.5225852266
20
0.114262759464
10
-19.5225634534
20
0.109952452093
10
-19.5225411338
20
0.105642149042
10
-19.5225182677
20
0.101331850309
10
-19.5224948552
20
0.0970215558955
10
-19.5224708963
20
0.0927112658009
10
-19.522446391
20
0.0884009800253
10
-19.5224213392
20
0.0840906985686
10
-19.522395741
20
0.0797804214309
10
-19.5223695964
20
0.0754701486121
10
-19.5223429053
20
0.0711598801123
10
-19.5223156678
20
0.0668496159315
10
-19.5222878839
20
0.0625393560697
10
-19.5222595536
20
0.0582291005268
10
-19.5222306768
20
0.0539188493028
10
-19.5222012536
20
0.0496086023978
10
-19.522171284
20
0.0452983598117
10
-19.5221407679
20
0.0409881215446
10
-19.5221097055
20
0.0366778875965
10
-19.5220780966
20
0.0323676579673
10
-19.5220459412
20
0.028057432657
10
-19.5220132395
20
0.0237472116657
10
-19.5219799913
20
0.0194369949933
10
-19.5219461967
20
0.0151267826399
10
-19.5219461967
20
0.0151267826399
10
-19.5219118556
20
0.0108165746054
10
-19.5218769682
20
0.00650637088983
10
-19.5218415343
20
0.00219617149322
10
-19.521805554
20
-0.00211402358444
10
-19.5217690272
20
-0.00642421434316
10
-19.5217319541
20
-0.0107344007829
10
-19.5216943345
20
-0.0150445829038
10
-19.5216561685
20
-0.0193547607056
10
-19.521617456
20
-0.0236649341886
10
-19.5215781971
20
-0.0279751033525
10
-19.5215383918
20
-0.0322852681976
10
-19.5214980401
20
-0.0365954287236
10
-19.5214571419
20
-0.0409055849307
10
-19.5214156973
20
-0.0452157368189
10
-19.5213737063
20
-0.0495258843881
10
-19.5213311689
20
-0.0538360276383
10
-19.521288085
20
-0.0581461665695
10
-19.5212444547
20
-0.0624563011818
10
-19.521200278
20
-0.0667664314751
10
-19.5211555548
20
-0.0710765574494
10
-19.5211102852
20
-0.0753866791047
10
-19.5210644692
20
-0.0796967964411
10
-19.5210181067
20
-0.0840069094584
10
-19.5209711978
20
-0.0883170181568
10
-19.5209237425
20
-0.0926271225361
10
-19.5208757407
20
-0.0969372225965
10
-19.5208271925
20
-0.101247318338
10
-19.5207780979
20
-0.10555740976
10
-19.5207284568
20
-0.109867496863
0
LINE
8
Mirrors
10
-19.6201799315
20
-0.110653559505
11
-19.6232466688
21
0.139330010053
0
TEXT
8
text
10
-19.6092148619
20
0.00223341201773
40
0.025
1
PR3
0
LINE
8
Mirrors
10
-4.22810323263
20
0.393727170933
11
-4.12864869089
21
0.393638635436
0
LINE
8
Mirrors
10
-4.1277804062
20
0.14363776342
11
-4.22832578522
21
0.143727269992
0
LINE
8
Mirrors
10
-4.21832578918
20
0.143718367889
11
-4.21810323659
21
0.39371826883
0
LWPOLYLINE
8
Mirrors
70
0
90
60
10
-4.22832578522
20
0.143727269992
10
-4.22844233672
20
0.148037720283
10
-4.22855466094
20
0.152348166811
10
-4.2286627582
20
0.156658609576
10
-4.22876662884
20
0.160969048578
10
-4.22886627316
20
0.165279483818
10
-4.22896169146
20
0.169589915296
10
-4.22905288403
20
0.173900343012
10
-4.22913985114
20
0.178210766967
10
-4.22922259305
20
0.18252118716
10
-4.22930111001
20
0.186831603592
10
-4.22937540226
20
0.191142016263
10
-4.22944547003
20
0.195452425174
10
-4.22951131352
20
0.199762830324
10
-4.22957293294
20
0.204073231714
10
-4.22963032848
20
0.208383629343
10
-4.22968350031
20
0.212694023213
10
-4.22973244859
20
0.217004413323
10
-4.22977717349
20
0.221314799673
10
-4.22981767513
20
0.225625182263
10
-4.22985395365
20
0.229935561094
10
-4.22988600916
20
0.234245936166
10
-4.22991384177
20
0.238556307478
10
-4.22993745156
20
0.242866675032
10
-4.22995683862
20
0.247177038826
10
-4.22997200301
20
0.251487398861
10
-4.22998294478
20
0.255797755137
10
-4.22998966399
20
0.260108107654
10
-4.22999216066
20
0.264418456412
10
-4.2299904348
20
0.268728801411
10
-4.2299904348
20
0.268728801411
10
-4.22998448643
20
0.273039142651
10
-4.22997431554
20
0.277349480132
10
-4.2299599221
20
0.281659813855
10
-4.2299413061
20
0.285970143818
10
-4.22991846748
20
0.290280470022
10
-4.2298914062
20
0.294590792468
10
-4.22986012218
20
0.298901111154
10
-4.22982461534
20
0.303211426081
10
-4.2297848856
20
0.307521737248
10
-4.22974093286
20
0.311832044657
10
-4.22969275699
20
0.316142348306
10
-4.22964035787
20
0.320452648195
10
-4.22958373535
20
0.324762944324
10
-4.2295228893
20
0.329073236694
10
-4.22945781953
20
0.333383525304
10
-4.22938852589
20
0.337693810153
10
-4.22931500817
20
0.342004091243
10
-4.22923726618
20
0.346314368571
10
-4.2291552997
20
0.350624642139
10
-4.22906910851
20
0.354934911947
10
-4.22897869237
20
0.359245177993
10
-4.22888405103
20
0.363555440277
10
-4.22878518424
20
0.367865698801
10
-4.22868209171
20
0.372175953562
10
-4.22857477316
20
0.376486204562
10
-4.2284632283
20
0.380796451799
10
-4.2283474568
20
0.385106695273
10
-4.22822745836
20
0.389416934985
10
-4.22810323263
20
0.393727170933
0
LINE
8
Mirrors
10
-4.12864869089
20
0.393638635436
11
-4.1277804062
21
0.14363776342
0
TEXT
8
text
10
-4.21571452873
20
0.256182709945
40
0.025
1
PR2
0
LINE
8
Mirrors
10
53.2140556581
20
-0.132577837311
11
53.1139642037
21
-0.132577837311
0
LINE
8
Mirrors
10
53.1141471126
20
0.117422162689
11
53.2140556581
21
0.117422162689
0
LINE
8
Mirrors
10
53.2040556581
20
0.117422162689
11
53.2040556581
21
-0.132577837311
0
LWPOLYLINE
8
Mirrors
70
0
90
60
10
53.2140556581
20
0.117422162689
10
53.2140553795
20
0.113111817861
10
53.2140551105
20
0.108801473033
10
53.2140548514
20
0.104491128206
10
53.2140546021
20
0.100180783378
10
53.2140543625
20
0.0958704385507
10
53.2140541327
20
0.0915600937231
10
53.2140539127
20
0.0872497488955
10
53.2140537024
20
0.0829394040679
10
53.214053502
20
0.0786290592404
10
53.2140533113
20
0.0743187144128
10
53.2140531304
20
0.0700083695852
10
53.2140529593
20
0.0656980247576
10
53.2140527979
20
0.06138767993
10
53.2140526464
20
0.0570773351024
10
53.2140525046
20
0.0527669902748
10
53.2140523726
20
0.0484566454473
10
53.2140522503
20
0.0441463006197
10
53.2140521379
20
0.0398359557921
10
53.2140520352
20
0.0355256109645
10
53.2140519423
20
0.0312152661369
10
53.2140518592
20
0.0269049213093
10
53.2140517859
20
0.0225945764817
10
53.2140517223
20
0.0182842316542
10
53.2140516685
20
0.0139738868266
10
53.2140516245
20
0.00966354199898
10
53.2140515903
20
0.00535319717139
10
53.2140515659
20
0.00104285234381
10
53.2140515512
20
-0.00326749248378
10
53.2140515463
20
-0.00757783731137
10
53.2140515463
20
-0.00757783731137
10
53.2140515512
20
-0.011888182139
10
53.2140515659
20
-0.0161985269665
10
53.2140515903
20
-0.0205088717941
10
53.2140516245
20
-0.0248192166217
10
53.2140516685
20
-0.0291295614493
10
53.2140517223
20
-0.0334399062769
10
53.2140517859
20
-0.0377502511045
10
53.2140518592
20
-0.0420605959321
10
53.2140519423
20
-0.0463709407596
10
53.2140520352
20
-0.0506812855872
10
53.2140521379
20
-0.0549916304148
10
53.2140522503
20
-0.0593019752424
10
53.2140523726
20
-0.06361232007
10
53.2140525046
20
-0.0679226648976
10
53.2140526464
20
-0.0722330097252
10
53.2140527979
20
-0.0765433545527
10
53.2140529593
20
-0.0808536993803
10
53.2140531304
20
-0.0851640442079
10
53.2140533113
20
-0.0894743890355
10
53.214053502
20
-0.0937847338631
10
53.2140537024
20
-0.0980950786907
10
53.2140539127
20
-0.102405423518
10
53.2140541327
20
-0.106715768346
10
53.2140543625
20
-0.111026113173
10
53.2140546021
20
-0.115336458001
10
53.2140548514
20
-0.119646802829
10
53.2140551105
20
-0.123957147656
10
53.2140553795
20
-0.128267492484
10
53.2140556581
20
-0.132577837311
0
LINE
8
Mirrors
10
53.1139642037
20
-0.132577837311
11
53.1141471126
21
0.117422162689
0
TEXT
8
text
10
53.1140556581
20
-0.0200778373114
40
0.025
1
ITMX
0
LINE
8
Mirrors
10
0.108606551748
20
49.9289185485
11
0.108606551748
21
49.8288270941
0
LINE
8
Mirrors
10
-0.141393448252
20
49.829010003
11
-0.141393448252
21
49.9289185485
0
LINE
8
Mirrors
10
-0.141393448252
20
49.9189185485
11
0.108606551748
21
49.9189185485
0
LWPOLYLINE
8
Mirrors
70
0
90
60
10
-0.141393448252
20
49.9289185485
10
-0.137083103425
20
49.9289182698
10
-0.132772758597
20
49.9289180009
10
-0.12846241377
20
49.9289177418
10
-0.124152068942
20
49.9289174924
10
-0.119841724114
20
49.9289172529
10
-0.115531379287
20
49.9289170231
10
-0.111221034459
20
49.9289168031
10
-0.106910689632
20
49.9289165928
10
-0.102600344804
20
49.9289163924
10
-0.0982899999765
20
49.9289162017
10
-0.0939796551489
20
49.9289160208
10
-0.0896693103213
20
49.9289158497
10
-0.0853589654937
20
49.9289156883
10
-0.0810486206662
20
49.9289155368
10
-0.0767382758386
20
49.928915395
10
-0.072427931011
20
49.928915263
10
-0.0681175861834
20
49.9289151407
10
-0.0638072413558
20
49.9289150283
10
-0.0594968965282
20
49.9289149256
10
-0.0551865517006
20
49.9289148327
10
-0.0508762068731
20
49.9289147496
10
-0.0465658620455
20
49.9289146763
10
-0.0422555172179
20
49.9289146127
10
-0.0379451723903
20
49.9289145589
10
-0.0336348275627
20
49.9289145149
10
-0.0293244827351
20
49.9289144807
10
-0.0250141379075
20
49.9289144562
10
-0.0207037930799
20
49.9289144416
10
-0.0163934482524
20
49.9289144367
10
-0.0163934482524
20
49.9289144367
10
-0.0120831034248
20
49.9289144416
10
-0.00777275859719
20
49.9289144562
10
-0.0034624137696
20
49.9289144807
10
0.000847931057984
20
49.9289145149
10
0.00515827588557
20
49.9289145589
10
0.00946862071316
20
49.9289146127
10
0.0137789655407
20
49.9289146763
10
0.0180893103683
20
49.9289147496
10
0.0223996551959
20
49.9289148327
10
0.0267100000235
20
49.9289149256
10
0.0310203448511
20
49.9289150283
10
0.0353306896787
20
49.9289151407
10
0.0396410345063
20
49.928915263
10
0.0439513793338
20
49.928915395
10
0.0482617241614
20
49.9289155368
10
0.052572068989
20
49.9289156883
10
0.0568824138166
20
49.9289158497
10
0.0611927586442
20
49.9289160208
10
0.0655031034718
20
49.9289162017
10
0.0698134482994
20
49.9289163924
10
0.0741237931269
20
49.9289165928
10
0.0784341379545
20
49.9289168031
10
0.0827444827821
20
49.9289170231
10
0.0870548276097
20
49.9289172529
10
0.0913651724373
20
49.9289174924
10
0.0956755172649
20
49.9289177418
10
0.0999858620925
20
49.9289180009
10
0.10429620692
20
49.9289182698
10
0.108606551748
20
49.9289185485
0
LINE
8
Mirrors
10
0.108606551748
20
49.8288270941
11
-0.141393448252
21
49.829010003
0
TEXT
8
text
10
-0.0663934482524
20
49.8664185485
40
0.025
1
ITMY
0
ENDSEC
0
EOF
