0
SECTION
2
HEADER
9
$ACADVER
1
AC1009
9
$INSBASE
10
0.0
20
0.0
30
0.0
9
$EXTMIN
10
0.0
20
0.0
9
$EXTMAX
10
0.0
20
0.0
9
$INSUNITS
70
6
0
ENDSEC
0
SECTION
2
TABLES
0
TABLE
2
LTYPE
70
1
0
LTYPE
2
CONTINUOUS
70
64
3
Solid line
72
65
73
0
40
0.0
0
ENDTAB
0
TABLE
2
LAYER
70
9
0
LAYER
2
PYDXF
70
64
62
7
6
continuous
0
LAYER
2
MAIN_BEAM
70
64
62
1
6
continuous
0
LAYER
2
MAIN_BEAM_WIDTH
70
64
62
2
6
continuous
0
LAYER
2
AUX_BEAM
70
64
62
3
6
continuous
0
LAYER
2
AUX_BEAM_WIDTH
70
64
62
4
6
continuous
0
LAYER
2
POX
70
64
62
5
6
continuous
0
LAYER
2
POX_WIDTH
70
64
62
6
6
continuous
0
LAYER
2
POY
70
64
62
7
6
continuous
0
LAYER
2
POY_WIDTH
70
64
62
8
6
continuous
0
ENDTAB
0
TABLE
2
STYLE
70
1
0
STYLE
2
STANDARD
70
0
40
0
41
40
50
50
71
0
42
1
3
ARIAL.TTF
4

0
ENDTAB
0
TABLE
2
VIEW
70
0
0
ENDTAB
0
ENDSEC
0
SECTION
2
BLOCKS
0
ENDSEC
0
SECTION
2
ENTITIES
0
CIRCLE
8
Vacuum
10
-10.955302607
20
0.392239023207
40
0.75
0
LINE
8
Vacuum
10
-11.805302607
20
0.624739023207
30
0
11
-10.105302607
21
0.624739023207
31
0
0
LINE
8
Vacuum
10
-10.105302607
20
0.624739023207
30
0
11
-10.105302607
21
-0.160260976793
31
0
0
LINE
8
Vacuum
10
-10.105302607
20
-0.160260976793
30
0
11
-11.805302607
21
-0.160260976793
31
0
0
LINE
8
Vacuum
10
-11.805302607
20
-0.160260976793
30
0
11
-11.805302607
21
0.624739023207
31
0
0
CIRCLE
8
Vacuum
10
-4.12836359009
20
0.267764259343
40
0.75
0
LINE
8
Vacuum
10
-4.97836359009
20
0.500264259343
30
0
11
-3.27836359009
21
0.500264259343
31
0
0
LINE
8
Vacuum
10
-3.27836359009
20
0.500264259343
30
0
11
-3.27836359009
21
-0.284735740657
31
0
0
LINE
8
Vacuum
10
-3.27836359009
20
-0.284735740657
30
0
11
-4.97836359009
21
-0.284735740657
31
0
0
LINE
8
Vacuum
10
-4.97836359009
20
-0.284735740657
30
0
11
-4.97836359009
21
0.500264259343
31
0
0
CIRCLE
8
Vacuum
10
-19.5717148842
20
0.0147362371516
40
0.75
0
LINE
8
Vacuum
10
-20.4217148842
20
0.627236237152
30
0
11
-18.7217148842
21
0.627236237152
31
0
0
LINE
8
Vacuum
10
-18.7217148842
20
0.627236237152
30
0
11
-18.7217148842
21
-0.157763762848
31
0
0
LINE
8
Vacuum
10
-18.7217148842
20
-0.157763762848
30
0
11
-20.4217148842
21
-0.157763762848
31
0
0
LINE
8
Vacuum
10
-20.4217148842
20
-0.157763762848
30
0
11
-20.4217148842
21
0.627236237152
31
0
0
LINE
8
Vacuum
10
-18.7217148842
20
0.627236237152
11
-11.805302607
21
0.624739023207
0
LINE
8
Vacuum
10
-18.7217148842
20
-0.157763762848
11
-11.805302607
21
-0.160260976793
0
LINE
8
Vacuum
10
-10.105302607
20
0.624739023207
11
-4.97836359009
21
0.500264259343
0
LINE
8
Vacuum
10
-10.105302607
20
-0.160260976793
11
-4.97836359009
21
-0.284735740657
0
CIRCLE
8
Vacuum
10
0.0282779650527
20
-0.0282905760365
40
0.75
0
LINE
8
Vacuum
10
-0.821722034947
20
0.364209423964
30
0
11
0.878277965053
21
0.364209423964
31
0
0
LINE
8
Vacuum
10
0.878277965053
20
0.364209423964
30
0
11
0.878277965053
21
-0.420790576036
31
0
0
LINE
8
Vacuum
10
0.878277965053
20
-0.420790576036
30
0
11
-0.821722034947
21
-0.420790576036
31
0
0
LINE
8
Vacuum
10
-0.821722034947
20
-0.420790576036
30
0
11
-0.821722034947
21
0.364209423964
31
0
0
LINE
8
Vacuum
10
-0.364222034947
20
0.821709423964
30
0
11
0.420777965053
21
0.821709423964
31
0
0
LINE
8
Vacuum
10
0.420777965053
20
0.821709423964
30
0
11
0.420777965053
21
-0.878290576036
31
0
0
LINE
8
Vacuum
10
0.420777965053
20
-0.878290576036
30
0
11
-0.364222034947
21
-0.878290576036
31
0
0
LINE
8
Vacuum
10
-0.364222034947
20
-0.878290576036
30
0
11
-0.364222034947
21
0.821709423964
31
0
0
LINE
8
Vacuum
10
-3.27836359009
20
0.500264259343
11
-0.821722034947
21
0.364209423964
0
LINE
8
Vacuum
10
-3.27836359009
20
-0.284735740657
11
-0.821722034947
21
-0.420790576036
0
CIRCLE
8
Vacuum
10
0.427760375439
20
-11.1909882815
40
0.75
0
LINE
8
Vacuum
10
-0.144739624561
20
-10.3409882815
30
0
11
0.640260375439
21
-10.3409882815
31
0
0
LINE
8
Vacuum
10
0.640260375439
20
-10.3409882815
30
0
11
0.640260375439
21
-12.0409882815
31
0
0
LINE
8
Vacuum
10
0.640260375439
20
-12.0409882815
30
0
11
-0.144739624561
21
-12.0409882815
31
0
0
LINE
8
Vacuum
10
-0.144739624561
20
-12.0409882815
30
0
11
-0.144739624561
21
-10.3409882815
31
0
0
CIRCLE
8
Vacuum
10
0.293870200728
20
-4.10379928114
40
0.75
0
LINE
8
Vacuum
10
-0.238629799272
20
-3.25379928114
30
0
11
0.546370200728
21
-3.25379928114
31
0
0
LINE
8
Vacuum
10
0.546370200728
20
-3.25379928114
30
0
11
0.546370200728
21
-4.95379928114
31
0
0
LINE
8
Vacuum
10
0.546370200728
20
-4.95379928114
30
0
11
-0.238629799272
21
-4.95379928114
31
0
0
LINE
8
Vacuum
10
-0.238629799272
20
-4.95379928114
30
0
11
-0.238629799272
21
-3.25379928114
31
0
0
CIRCLE
8
Vacuum
10
0.0521122875016
20
-19.4069894192
40
0.75
0
LINE
8
Vacuum
10
-0.130387712498
20
-18.5569894192
30
0
11
0.654612287502
21
-18.5569894192
31
0
0
LINE
8
Vacuum
10
0.654612287502
20
-18.5569894192
30
0
11
0.654612287502
21
-20.2569894192
31
0
0
LINE
8
Vacuum
10
0.654612287502
20
-20.2569894192
30
0
11
-0.130387712498
21
-20.2569894192
31
0
0
LINE
8
Vacuum
10
-0.130387712498
20
-20.2569894192
30
0
11
-0.130387712498
21
-18.5569894192
31
0
0
LINE
8
Vacuum
10
-0.130387712498
20
-18.5569894192
11
-0.144739624561
21
-12.0409882815
0
LINE
8
Vacuum
10
0.654612287502
20
-18.5569894192
11
0.640260375439
21
-12.0409882815
0
LINE
8
Vacuum
10
-0.144739624561
20
-10.3409882815
11
-0.238629799272
21
-4.95379928114
0
LINE
8
Vacuum
10
0.640260375439
20
-10.3409882815
11
0.546370200728
21
-4.95379928114
0
LINE
8
Vacuum
10
-0.238629799272
20
-3.25379928114
11
-0.364222034947
21
-0.878290576036
0
LINE
8
Vacuum
10
0.546370200728
20
-3.25379928114
11
0.420777965053
21
-0.878290576036
0
CIRCLE
8
Vacuum
10
26.4321160223
20
-0.0163807284905
40
1.25
0
LINE
8
Vacuum
10
25.0821160223
20
0.376119271509
30
0
11
27.7821160223
21
0.376119271509
31
0
0
LINE
8
Vacuum
10
27.7821160223
20
0.376119271509
30
0
11
27.7821160223
21
-0.408880728491
31
0
0
LINE
8
Vacuum
10
27.7821160223
20
-0.408880728491
30
0
11
25.0821160223
21
-0.408880728491
31
0
0
LINE
8
Vacuum
10
25.0821160223
20
-0.408880728491
30
0
11
25.0821160223
21
0.376119271509
31
0
0
CIRCLE
8
Vacuum
10
-0.00759055707324
20
23.1469789127
40
1.25
0
LINE
8
Vacuum
10
-0.400090557073
20
24.4969789127
30
0
11
0.384909442927
21
24.4969789127
31
0
0
LINE
8
Vacuum
10
0.384909442927
20
24.4969789127
30
0
11
0.384909442927
21
21.7969789127
31
0
0
LINE
8
Vacuum
10
0.384909442927
20
21.7969789127
30
0
11
-0.400090557073
21
21.7969789127
31
0
0
LINE
8
Vacuum
10
-0.400090557073
20
21.7969789127
30
0
11
-0.400090557073
21
24.4969789127
31
0
0
LINE
8
Vacuum
10
0.878277965053
20
0.364209423964
11
25.0821160223
21
0.376119271509
0
LINE
8
Vacuum
10
0.878277965053
20
-0.420790576036
11
25.0821160223
21
-0.408880728491
0
LINE
8
Vacuum
10
-0.364222034947
20
0.821709423964
11
-0.400090557073
21
21.7969789127
0
LINE
8
Vacuum
10
0.420777965053
20
0.821709423964
11
0.384909442927
21
21.7969789127
0
LINE
8
main_beam
10
2.12390460774e-09
20
2.12295686586e-09
11
0.0882163923428
21
-0.0250230531795
0
LWPOLYLINE
8
main_beam_width
70
0
90
10
10
0.096756976972
20
0.096713845978
10
0.106581870524
20
0.0939265376745
10
0.116406764075
20
0.0911392293711
10
0.126231657627
20
0.0883519210679
10
0.136056551179
20
0.0855646127649
10
0.145881444731
20
0.0827773044621
10
0.155706338282
20
0.0799899961594
10
0.165531231834
20
0.0772026878569
10
0.175356125386
20
0.0744153795546
10
0.185181018938
20
0.0716280712524
0
LWPOLYLINE
8
main_beam_width
70
0
90
10
10
-0.0967612905358
20
-0.0967181576189
10
-0.0869825444226
20
-0.099491529532
10
-0.0772037983096
20
-0.102264901445
10
-0.0674250521965
20
-0.105038273358
10
-0.0576463060836
20
-0.107811645272
10
-0.0478675599707
20
-0.110585017186
10
-0.0380888138578
20
-0.1133583891
10
-0.0283100677449
20
-0.116131761014
10
-0.0185313216322
20
-0.118905132928
10
-0.00875257551943
20
-0.121678504842
0
TEXT
8
text
10
-0.00525925579135
20
0.0118863386592
40
0.01
1

0
LINE
8
main_beam
10
0.0249447982977
20
-0.0880900800301
11
0.0524720000037
21
-19.3572204993
0
LWPOLYLINE
8
main_beam_width
70
0
90
10
10
0.121759591539
20
0.00841169548277
10
0.124987167293
20
-2.14338838458
10
0.128214773871
20
-4.2951884646
10
0.13144241113
20
-6.44698854457
10
0.134670078922
20
-8.59878862451
10
0.137897777104
20
-10.7505887044
10
0.141125505534
20
-12.9023887842
10
0.144353264068
20
-15.054188864
10
0.147581052566
20
-17.2059889438
10
0.150808870886
20
-19.3577890235
0
LWPOLYLINE
8
main_beam_width
70
0
90
10
10
-0.0718837314152
20
-0.184605547602
10
-0.0689926590529
20
-2.31480132364
10
-0.0661016168883
20
-4.44499709972
10
-0.0632106047802
20
-6.57519287584
10
-0.0603196225878
20
-8.70538865201
10
-0.0574286701715
20
-10.8355844282
10
-0.0545377473924
20
-12.9657802045
10
-0.0516468541124
20
-15.0959759808
10
-0.0487559901944
20
-17.2261717571
10
-0.0458651555019
20
-19.3563675335
0
TEXT
8
text
10
0.0623291334642
20
-19.2572063157
40
0.01
1

0
LINE
8
main_beam
10
-10.9044940576
20
0.391305925225
11
-4.18013949346
21
0.26781329009
0
LWPOLYLINE
8
main_beam_width
70
0
90
21
10
-10.9044001548
20
0.396495800836
10
-10.5681863773
20
0.390572941835
10
-10.2319725212
20
0.384654366579
10
-9.89575859654
20
0.378739523034
10
-9.55954461192
20
0.372827943911
10
-9.22333057465
20
0.366919232252
10
-8.88711649092
20
0.361013049568
10
-8.55090236608
20
0.355109106092
10
-8.21468820469
20
0.349207152776
10
-7.87847401069
20
0.343306974723
10
-7.54225978751
20
0.337408385772
10
-7.20604553812
20
0.331511224041
10
-6.86983126511
20
0.325615348231
10
-6.53361697076
20
0.319720634562
10
-6.19740265706
20
0.313826974222
10
-5.86118832579
20
0.307934271231
10
-5.52497397849
20
0.302042440657
10
-5.18875961655
20
0.296151407104
10
-4.85254524121
20
0.290261103441
10
-4.51633085357
20
0.284371469726
10
-4.18011645461
20
0.278482452285
0
LWPOLYLINE
8
main_beam_width
70
0
90
21
10
-10.9045907778
20
0.386116101357
10
-10.5683676643
20
0.379689656468
10
-10.2321446296
20
0.373258927392
10
-9.89592166332
20
0.366824466248
10
-9.55969875704
20
0.360386740393
10
-9.22347590344
20
0.353946146836
10
-8.88725309627
20
0.347503024111
10
-8.55103033024
20
0.34105766202
10
-8.21480760075
20
0.334610309636
10
-7.87858490387
20
0.328161181883
10
-7.54236223618
20
0.321710464937
10
-7.2061395947
20
0.315258320697
10
-6.86991697684
20
0.308804890474
10
-6.53369438031
20
0.302350298058
10
-6.19747180314
20
0.295894652271
10
-5.86124924355
20
0.289438049097
10
-5.52502669997
20
0.282980573476
10
-5.18880417104
20
0.27652230081
10
-4.85258165551
20
0.270063298232
10
-4.51635915229
20
0.263603625689
10
-4.18013666038
20
0.257143336856
0
TEXT
8
text
10
-4.27993901527
20
0.279647792503
40
0.01
1

0
LINE
8
main_beam
10
53.1140547305
20
-0.0075778373113
11
53.0140588478
21
-0.00761073541938
0
LWPOLYLINE
8
main_beam_width
70
0
90
10
10
53.11398681
20
-0.100411616111
10
53.1028870969
20
-0.100416049502
10
53.0917873838
20
-0.100420482894
10
53.0806876706
20
-0.100424916287
10
53.0695879575
20
-0.10042934968
10
53.0584882444
20
-0.100433783075
10
53.0473885313
20
-0.100438216471
10
53.0362888181
20
-0.100442649867
10
53.025189105
20
-0.100447083265
10
53.0140893919
20
-0.100451516663
0
LWPOLYLINE
8
main_beam_width
70
0
90
10
10
53.114122651
20
0.0852559276209
10
53.1030010568
20
0.0852530518619
10
53.0918794627
20
0.0852501761039
10
53.0807578685
20
0.0852473003469
10
53.0696362744
20
0.0852444245907
10
53.0585146802
20
0.0852415488356
10
53.0473930861
20
0.0852386730813
10
53.0362714919
20
0.085235797328
10
53.0251498978
20
0.0852329215757
10
53.0140283036
20
0.0852300458243
0
TEXT
8
text
10
53.1140621323
20
-0.0175778354173
40
0.01
1

0
LINE
8
main_beam
10
0.0524720000037
20
-19.3572204993
11
0.293951026147
21
-4.15539386507
0
LWPOLYLINE
8
main_beam_width
70
0
90
100
10
-0.0458668151894
20
-19.3563675167
10
-0.0425502379999
20
-19.2028223751
10
-0.0392336609657
20
-19.0492772335
10
-0.0359170840911
20
-18.8957320919
10
-0.0326005073804
20
-18.7421869503
10
-0.0292839308384
20
-18.5886418087
10
-0.0259673544697
20
-18.4350966671
10
-0.0226507782793
20
-18.2815515255
10
-0.0193342022724
20
-18.1280063839
10
-0.0160176264543
20
-17.9744612423
10
-0.0127010508305
20
-17.8209161007
10
-0.00938447540679
20
-17.667370959
10
-0.00606790018921
20
-17.5138258174
10
-0.00275132518397
20
-17.3602806758
10
0.00056524960243
20
-17.2067355342
10
0.00388182416323
20
-17.0531903925
10
0.00719839849138
20
-16.8996452509
10
0.0105149725795
20
-16.7461001093
10
0.0138315464201
20
-16.5925549676
10
0.017148120005
20
-16.439009826
10
0.0204646933259
20
-16.2854646843
10
0.0237812663742
20
-16.1319195427
10
0.0270978391408
20
-15.978374401
10
0.0304144116161
20
-15.8248292594
10
0.0337309837904
20
-15.6712841177
10
0.0370475556531
20
-15.517738976
10
0.0403641271935
20
-15.3641938343
10
0.0436806984001
20
-15.2106486926
10
0.0469972692611
20
-15.057103551
10
0.050313839764
20
-14.9035584093
10
0.0536304098956
20
-14.7500132676
10
0.0569469796423
20
-14.5964681258
10
0.0602635489897
20
-14.4429229841
10
0.0635801179225
20
-14.2893778424
10
0.0668966864249
20
-14.1358327007
10
0.0702132544802
20
-13.982287559
10
0.0735298220705
20
-13.8287424172
10
0.0768463891775
20
-13.6751972755
10
0.0801629557815
20
-13.5216521337
10
0.0834795218619
20
-13.3681069919
10
0.0867960873968
20
-13.2145618502
10
0.0901126523633
20
-13.0610167084
10
0.0934292167371
20
-12.9074715666
10
0.0967457804923
20
-12.7539264248
10
0.100062343602
20
-12.600381283
10
0.103378906037
20
-12.4468361411
10
0.106695467766
20
-12.2932909993
10
0.110012028758
20
-12.1397458575
10
0.113328588977
20
-11.9862007156
10
0.116645148387
20
-11.8326555737
10
0.11996170695
20
-11.6791104318
10
0.123278264622
20
-11.5255652899
10
0.12659482136
20
-11.372020148
10
0.129911377116
20
-11.2184750061
10
0.13322793184
20
-11.0649298642
10
0.136544485478
20
-10.9113847222
10
0.13986103797
20
-10.7578395802
10
0.143177589255
20
-10.6042944382
10
0.146494139267
20
-10.4507492962
10
0.149810687932
20
-10.2972041541
10
0.153127235173
20
-10.1436590121
10
0.156443780907
20
-9.99011386999
10
0.159760325044
20
-9.83656872788
10
0.163076867485
20
-9.68302358573
10
0.166393408126
20
-9.52947844356
10
0.169709946851
20
-9.37593330136
10
0.173026483535
20
-9.22238815913
10
0.176343018043
20
-9.06884301686
10
0.179659550226
20
-8.91529787456
10
0.182976079924
20
-8.76175273221
10
0.186292606958
20
-8.60820758983
10
0.189609131134
20
-8.4546624474
10
0.192925652238
20
-8.30111730492
10
0.196242170034
20
-8.14757216238
10
0.199558684262
20
-7.99402701979
10
0.202875194634
20
-7.84048187714
10
0.206191700828
20
-7.68693673442
10
0.209508202486
20
-7.53339159164
10
0.212824699211
20
-7.37984644877
10
0.216141190555
20
-7.22630130581
10
0.219457676014
20
-7.07275616277
10
0.222774155021
20
-6.91921101962
10
0.226090626931
20
-6.76566587636
10
0.229407091014
20
-6.61212073297
10
0.232723546432
20
-6.45857558945
10
0.236039992227
20
-6.30503044577
10
0.239356427291
20
-6.15148530192
10
0.242672850341
20
-5.99794015788
10
0.245989259881
20
-5.84439501363
10
0.249305654155
20
-5.69084986914
10
0.25262203109
20
-5.53730472437
10
0.255938388218
20
-5.38375957928
10
0.259254722582
20
-5.23021443383
10
0.262571030603
20
-5.07666928797
10
0.265887307913
20
-4.92312414162
10
0.269203549121
20
-4.76957899469
10
0.272519747496
20
-4.61603384708
10
0.275835894521
20
-4.46248869866
10
0.279151979265
20
-4.30894354925
10
0.282467987459
20
-4.15539839862
0
LWPOLYLINE
8
main_beam_width
70
0
90
100
10
0.150805606607
20
-19.3577890094
10
0.152367427385
20
-19.2042291439
10
0.153929248319
20
-19.0506692784
10
0.155491069412
20
-18.897109413
10
0.157052890669
20
-18.7435495475
10
0.158614712095
20
-18.589989682
10
0.160176533694
20
-18.4364298166
10
0.161738355472
20
-18.2828699511
10
0.163300177433
20
-18.1293100857
10
0.164861999583
20
-17.9757502202
10
0.166423821927
20
-17.8221903548
10
0.167985644471
20
-17.6686304893
10
0.169547467222
20
-17.5150706239
10
0.171109290185
20
-17.3615107584
10
0.172671113367
20
-17.207950893
10
0.174232936774
20
-17.0543910276
10
0.175794760414
20
-16.9008311622
10
0.177356584294
20
-16.7472712967
10
0.178918408422
20
-16.5937114313
10
0.180480232805
20
-16.4401515659
10
0.182042057453
20
-16.2865917005
10
0.183603882373
20
-16.1330318351
10
0.185165707575
20
-15.9794719697
10
0.186727533068
20
-15.8259121043
10
0.188289358862
20
-15.6723522389
10
0.189851184968
20
-15.5187923735
10
0.191413011396
20
-15.3652325081
10
0.192974838158
20
-15.2116726428
10
0.194536665266
20
-15.0581127774
10
0.196098492732
20
-14.904552912
10
0.197660320569
20
-14.7509930467
10
0.199222148791
20
-14.5974331813
10
0.200783977412
20
-14.443873316
10
0.202345806448
20
-14.2903134506
10
0.203907635915
20
-14.1367535853
10
0.205469465829
20
-13.98319372
10
0.207031296208
20
-13.8296338546
10
0.20859312707
20
-13.6760739893
10
0.210154958435
20
-13.522514124
10
0.211716790324
20
-13.3689542587
10
0.213278622759
20
-13.2153943934
10
0.214840455762
20
-13.0618345282
10
0.216402289358
20
-12.9082746629
10
0.217964123572
20
-12.7547147976
10
0.219525958432
20
-12.6011549324
10
0.221087793967
20
-12.4475950672
10
0.222649630208
20
-12.2940352019
10
0.224211467186
20
-12.1404753367
10
0.225773304937
20
-11.9869154715
10
0.227335143497
20
-11.8333556063
10
0.228896982906
20
-11.6797957412
10
0.230458823204
20
-11.526235876
10
0.232020664437
20
-11.3726760108
10
0.233582506651
20
-11.2191161457
10
0.235144349898
20
-11.0655562806
10
0.236706194232
20
-10.9119964155
10
0.238268039711
20
-10.7584365504
10
0.239829886398
20
-10.6048766854
10
0.241391734358
20
-10.4513168203
10
0.242953583665
20
-10.2977569553
10
0.244515434396
20
-10.1441970903
10
0.246077286635
20
-9.99063722534
10
0.247639140471
20
-9.8370773604
10
0.249200996003
20
-9.68351749548
10
0.250762853336
20
-9.52995763059
10
0.252324712585
20
-9.37639776573
10
0.253886573875
20
-9.2228379009
10
0.255448437342
20
-9.0692780361
10
0.257010303133
20
-8.91571817135
10
0.258572171411
20
-8.76215830663
10
0.260134042353
20
-8.60859844196
10
0.261695916154
20
-8.45503857733
10
0.263257793027
20
-8.30147871275
10
0.264819673208
20
-8.14791884822
10
0.266381556959
20
-7.99435898375
10
0.267943444566
20
-7.84079911934
10
0.269505336353
20
-7.687239255
10
0.271067232675
20
-7.53367939072
10
0.272629133932
20
-7.38011952653
10
0.274191040572
20
-7.22655966242
10
0.275752953098
20
-7.07299979841
10
0.277314872077
20
-6.9194399345
10
0.278876798154
20
-6.7658800707
10
0.280438732061
20
-6.61232020703
10
0.282000674634
20
-6.45876034349
10
0.283562626834
20
-6.30520048011
10
0.285124589766
20
-6.15164061689
10
0.286686564716
20
-5.99808075387
10
0.288248553179
20
-5.84452089106
10
0.289810556913
20
-5.6909610285
10
0.29137257799
20
-5.53740116621
10
0.29293461888
20
-5.38384130423
10
0.294496682541
20
-5.23028144262
10
0.296058772553
20
-5.07672158142
10
0.297620893285
20
-4.92316172072
10
0.299183050132
20
-4.76960186059
10
0.300745249827
20
-4.61604200113
10
0.302307500891
20
-4.4624821425
10
0.303869814258
20
-4.30892228485
10
0.305432204208
20
-4.15536242842
0
TEXT
8
text
10
0.282364001017
20
-4.25522242235
40
0.01
1

0
LINE
8
main_beam
10
0.0524720000037
20
-19.3572204993
11
0.293951026147
21
-4.15539386507
0
LWPOLYLINE
8
main_beam_width
70
0
90
100
10
-0.0458668151895
20
-19.3563675167
10
-0.042550238
20
-19.2028223751
10
-0.0392336609658
20
-19.0492772335
10
-0.0359170840912
20
-18.8957320919
10
-0.0326005073805
20
-18.7421869503
10
-0.0292839308385
20
-18.5886418087
10
-0.0259673544698
20
-18.4350966671
10
-0.0226507782794
20
-18.2815515255
10
-0.0193342022725
20
-18.1280063839
10
-0.0160176264544
20
-17.9744612423
10
-0.0127010508306
20
-17.8209161007
10
-0.00938447540688
20
-17.667370959
10
-0.00606790018929
20
-17.5138258174
10
-0.00275132518405
20
-17.3602806758
10
0.000565249602349
20
-17.2067355342
10
0.00388182416315
20
-17.0531903925
10
0.0071983984913
20
-16.8996452509
10
0.0105149725795
20
-16.7461001093
10
0.01383154642
20
-16.5925549676
10
0.0171481200049
20
-16.439009826
10
0.0204646933258
20
-16.2854646843
10
0.0237812663741
20
-16.1319195427
10
0.0270978391407
20
-15.978374401
10
0.0304144116161
20
-15.8248292594
10
0.0337309837903
20
-15.6712841177
10
0.037047555653
20
-15.517738976
10
0.0403641271934
20
-15.3641938343
10
0.0436806984
20
-15.2106486926
10
0.046997269261
20
-15.057103551
10
0.0503138397639
20
-14.9035584093
10
0.0536304098955
20
-14.7500132676
10
0.0569469796423
20
-14.5964681258
10
0.0602635489896
20
-14.4429229841
10
0.0635801179225
20
-14.2893778424
10
0.0668966864249
20
-14.1358327007
10
0.0702132544801
20
-13.982287559
10
0.0735298220705
20
-13.8287424172
10
0.0768463891774
20
-13.6751972755
10
0.0801629557814
20
-13.5216521337
10
0.0834795218618
20
-13.3681069919
10
0.0867960873968
20
-13.2145618502
10
0.0901126523633
20
-13.0610167084
10
0.093429216737
20
-12.9074715666
10
0.0967457804922
20
-12.7539264248
10
0.100062343602
20
-12.600381283
10
0.103378906036
20
-12.4468361411
10
0.106695467766
20
-12.2932909993
10
0.110012028758
20
-12.1397458575
10
0.113328588977
20
-11.9862007156
10
0.116645148387
20
-11.8326555737
10
0.119961706949
20
-11.6791104318
10
0.123278264622
20
-11.5255652899
10
0.12659482136
20
-11.372020148
10
0.129911377116
20
-11.2184750061
10
0.13322793184
20
-11.0649298642
10
0.136544485477
20
-10.9113847222
10
0.13986103797
20
-10.7578395802
10
0.143177589255
20
-10.6042944382
10
0.146494139267
20
-10.4507492962
10
0.149810687932
20
-10.2972041541
10
0.153127235173
20
-10.1436590121
10
0.156443780907
20
-9.99011386999
10
0.159760325044
20
-9.83656872788
10
0.163076867485
20
-9.68302358573
10
0.166393408126
20
-9.52947844356
10
0.16970994685
20
-9.37593330136
10
0.173026483535
20
-9.22238815913
10
0.176343018043
20
-9.06884301686
10
0.179659550226
20
-8.91529787456
10
0.182976079924
20
-8.76175273221
10
0.186292606958
20
-8.60820758983
10
0.189609131134
20
-8.4546624474
10
0.192925652238
20
-8.30111730492
10
0.196242170034
20
-8.14757216238
10
0.199558684262
20
-7.99402701979
10
0.202875194634
20
-7.84048187714
10
0.206191700828
20
-7.68693673442
10
0.209508202486
20
-7.53339159164
10
0.212824699211
20
-7.37984644877
10
0.216141190555
20
-7.22630130581
10
0.219457676014
20
-7.07275616277
10
0.222774155021
20
-6.91921101962
10
0.226090626931
20
-6.76566587636
10
0.229407091014
20
-6.61212073297
10
0.232723546432
20
-6.45857558945
10
0.236039992227
20
-6.30503044577
10
0.239356427291
20
-6.15148530192
10
0.242672850341
20
-5.99794015788
10
0.245989259881
20
-5.84439501363
10
0.249305654155
20
-5.69084986914
10
0.25262203109
20
-5.53730472437
10
0.255938388218
20
-5.38375957928
10
0.259254722582
20
-5.23021443383
10
0.262571030603
20
-5.07666928797
10
0.265887307913
20
-4.92312414162
10
0.269203549121
20
-4.76957899469
10
0.272519747496
20
-4.61603384708
10
0.275835894521
20
-4.46248869866
10
0.279151979265
20
-4.30894354925
10
0.282467987459
20
-4.15539839862
0
LWPOLYLINE
8
main_beam_width
70
0
90
100
10
0.150805606607
20
-19.3577890094
10
0.152367427385
20
-19.2042291439
10
0.153929248319
20
-19.0506692784
10
0.155491069412
20
-18.897109413
10
0.157052890669
20
-18.7435495475
10
0.158614712095
20
-18.589989682
10
0.160176533694
20
-18.4364298166
10
0.161738355472
20
-18.2828699511
10
0.163300177433
20
-18.1293100857
10
0.164861999583
20
-17.9757502202
10
0.166423821927
20
-17.8221903548
10
0.167985644471
20
-17.6686304893
10
0.169547467222
20
-17.5150706239
10
0.171109290185
20
-17.3615107584
10
0.172671113367
20
-17.207950893
10
0.174232936774
20
-17.0543910276
10
0.175794760414
20
-16.9008311622
10
0.177356584294
20
-16.7472712967
10
0.178918408422
20
-16.5937114313
10
0.180480232805
20
-16.4401515659
10
0.182042057453
20
-16.2865917005
10
0.183603882373
20
-16.1330318351
10
0.185165707575
20
-15.9794719697
10
0.186727533068
20
-15.8259121043
10
0.188289358862
20
-15.6723522389
10
0.189851184968
20
-15.5187923735
10
0.191413011396
20
-15.3652325081
10
0.192974838158
20
-15.2116726428
10
0.194536665266
20
-15.0581127774
10
0.196098492731
20
-14.904552912
10
0.197660320569
20
-14.7509930467
10
0.199222148791
20
-14.5974331813
10
0.200783977412
20
-14.443873316
10
0.202345806448
20
-14.2903134506
10
0.203907635915
20
-14.1367535853
10
0.205469465829
20
-13.98319372
10
0.207031296208
20
-13.8296338546
10
0.20859312707
20
-13.6760739893
10
0.210154958435
20
-13.522514124
10
0.211716790324
20
-13.3689542587
10
0.213278622759
20
-13.2153943934
10
0.214840455762
20
-13.0618345282
10
0.216402289357
20
-12.9082746629
10
0.217964123572
20
-12.7547147976
10
0.219525958432
20
-12.6011549324
10
0.221087793967
20
-12.4475950672
10
0.222649630208
20
-12.2940352019
10
0.224211467186
20
-12.1404753367
10
0.225773304937
20
-11.9869154715
10
0.227335143497
20
-11.8333556063
10
0.228896982906
20
-11.6797957412
10
0.230458823204
20
-11.526235876
10
0.232020664437
20
-11.3726760108
10
0.233582506651
20
-11.2191161457
10
0.235144349898
20
-11.0655562806
10
0.236706194232
20
-10.9119964155
10
0.238268039711
20
-10.7584365504
10
0.239829886398
20
-10.6048766854
10
0.241391734358
20
-10.4513168203
10
0.242953583665
20
-10.2977569553
10
0.244515434396
20
-10.1441970903
10
0.246077286635
20
-9.99063722534
10
0.247639140471
20
-9.8370773604
10
0.249200996003
20
-9.68351749548
10
0.250762853336
20
-9.52995763059
10
0.252324712585
20
-9.37639776573
10
0.253886573875
20
-9.2228379009
10
0.255448437342
20
-9.0692780361
10
0.257010303133
20
-8.91571817135
10
0.258572171411
20
-8.76215830663
10
0.260134042353
20
-8.60859844196
10
0.261695916154
20
-8.45503857733
10
0.263257793027
20
-8.30147871275
10
0.264819673208
20
-8.14791884822
10
0.266381556958
20
-7.99435898375
10
0.267943444566
20
-7.84079911934
10
0.269505336353
20
-7.687239255
10
0.271067232675
20
-7.53367939072
10
0.272629133932
20
-7.38011952653
10
0.274191040572
20
-7.22655966242
10
0.275752953098
20
-7.07299979841
10
0.277314872077
20
-6.9194399345
10
0.278876798154
20
-6.7658800707
10
0.280438732061
20
-6.61232020703
10
0.282000674634
20
-6.45876034349
10
0.283562626834
20
-6.30520048011
10
0.285124589766
20
-6.15164061689
10
0.286686564716
20
-5.99808075387
10
0.288248553179
20
-5.84452089106
10
0.289810556913
20
-5.6909610285
10
0.29137257799
20
-5.53740116621
10
0.29293461888
20
-5.38384130423
10
0.294496682541
20
-5.23028144262
10
0.296058772553
20
-5.07672158142
10
0.297620893285
20
-4.92316172072
10
0.299183050132
20
-4.76960186059
10
0.300745249827
20
-4.61604200113
10
0.302307500891
20
-4.4624821425
10
0.303869814258
20
-4.30892228485
10
0.305432204208
20
-4.15536242842
0
TEXT
8
text
10
0.282364001017
20
-4.25522242235
40
0.01
1

0
LINE
8
main_beam
10
-0.0163934440069
20
49.928913509
11
-0.0163934410524
21
2988.29010673
0
LWPOLYLINE
8
main_beam_width
70
0
90
37
10
-0.109625784122
20
49.928913509
10
-0.105646617062
20
131.550057765
10
-0.101724670946
20
213.171202021
10
-0.097868209515
20
294.792346277
10
-0.0940869847397
20
376.413490533
10
-0.0903925309056
20
458.03463479
10
-0.0867985090609
20
539.655779046
10
-0.0833211007848
20
621.276923302
10
-0.0799794411394
20
702.898067558
10
-0.0767960644287
20
784.519211814
10
-0.0737973098097
20
866.14035607
10
-0.0710135941078
20
947.761500326
10
-0.068479406775
20
1029.38264458
10
-0.0662328257266
20
1111.00378884
10
-0.064314317903
20
1192.62493309
10
-0.0627646211702
20
1274.24607735
10
-0.061621662185
20
1355.86722161
10
-0.0609167760794
20
1437.48836586
10
-0.0606708898349
20
1519.10951012
10
-0.0608916130698
20
1600.73065437
10
-0.0615721073486
20
1682.35179863
10
-0.0626921040636
20
1763.97294289
10
-0.0642207369993
20
1845.59408714
10
-0.0661203352939
20
1927.2152314
10
-0.0683502261369
20
2008.83637566
10
-0.0708698648849
20
2090.45751991
10
-0.0736410062626
20
2172.07866417
10
-0.076628949043
20
2253.69980842
10
-0.0798030527418
20
2335.32095268
10
-0.083136762947
20
2416.94209694
10
-0.0866073493011
20
2498.56324119
10
-0.0901955042797
20
2580.18438545
10
-0.0938848979532
20
2661.8055297
10
-0.0976617434802
20
2743.42667396
10
-0.101514400852
20
2825.04781822
10
-0.105433029696
20
2906.66896247
10
-0.109409292525
20
2988.29010673
0
LWPOLYLINE
8
main_beam_width
70
0
90
37
10
0.0768388961087
20
49.928913509
10
0.0728597292128
20
131.550057765
10
0.0689377832602
20
213.171202021
10
0.0650813219936
20
294.792346277
10
0.0613000973825
20
376.413490533
10
0.0576056437125
20
458.03463479
10
0.0540116220319
20
539.655779046
10
0.05053421392
20
621.276923302
10
0.0471925544387
20
702.898067558
10
0.0440091778921
20
784.519211814
10
0.0410104234373
20
866.14035607
10
0.0382267078996
20
947.761500326
10
0.0356925207309
20
1029.38264458
10
0.0334459398466
20
1111.00378884
10
0.0315274321871
20
1192.62493309
10
0.0299777356185
20
1274.24607735
10
0.0288347767974
20
1355.86722161
10
0.028129890856
20
1437.48836586
10
0.0278840047756
20
1519.10951012
10
0.0281047281747
20
1600.73065437
10
0.0287852226175
20
1682.35179863
10
0.0299052194967
20
1763.97294289
10
0.0314338525965
20
1845.59408714
10
0.0333334510553
20
1927.2152314
10
0.0355633420624
20
2008.83637566
10
0.0380829809746
20
2090.45751991
10
0.0408541225164
20
2172.07866417
10
0.0438420654609
20
2253.69980842
10
0.0470161693239
20
2335.32095268
10
0.0503498796932
20
2416.94209694
10
0.0538204662114
20
2498.56324119
10
0.0574086213541
20
2580.18438545
10
0.0610980151917
20
2661.8055297
10
0.0648748608829
20
2743.42667396
10
0.0687275184191
20
2825.04781822
10
0.0726461474269
20
2906.66896247
10
0.07662241042
20
2988.29010673
0
TEXT
8
text
10
-0.0263934410525
20
2988.19010673
40
0.01
1

0
LINE
8
main_beam
10
-0.0163934440069
20
49.8289176209
11
2.12385446383e-09
21
2.12290984791e-09
0
LWPOLYLINE
8
main_beam_width
70
0
90
10
10
0.0768438101133
20
49.8288494052
10
0.0790549751279
20
44.3030560374
10
0.0812663669117
20
38.7772626697
10
0.08347798263
20
33.251469302
10
0.0856898194934
20
27.7256759344
10
0.0879018747571
20
22.1998825669
10
0.0901141457201
20
16.6740891995
10
0.0923266297245
20
11.1482958321
10
0.0945393241541
20
5.62250246479
10
0.0967522264344
20
0.096709097558
0
LWPOLYLINE
8
main_beam_width
70
0
90
10
10
-0.109630684057
20
49.8289858366
10
-0.108200391411
20
44.2816848654
10
-0.106770327291
20
38.7343838941
10
-0.105340488831
20
33.1870829227
10
-0.103910873208
20
27.6397819513
10
-0.102481477646
20
22.0924809798
10
-0.101052299413
20
16.5451800082
10
-0.0996233358214
20
10.9978790365
10
-0.0981945842252
20
5.4505780648
10
-0.0967660420206
20
-0.0967229069858
0
TEXT
8
text
10
0.00996710212182
20
0.100003286657
40
0.01
1

0
LINE
8
main_beam
10
-4.18013949346
20
0.26781329009
11
-19.5219461967
21
0.0151267847645
0
LWPOLYLINE
8
main_beam_width
70
0
90
100
10
-4.18013665984
20
0.257142970934
10
-4.33509522735
20
0.253707135865
10
-4.49005379329
20
0.250271205266
10
-4.64501235797
20
0.246835198148
10
-4.79997092163
20
0.243399128793
10
-4.95492948444
20
0.239963008137
10
-5.10988804654
20
0.236526844697
10
-5.26484660805
20
0.233090645202
10
-5.41980516906
20
0.229654415043
10
-5.57476372963
20
0.226218158585
10
-5.72972228983
20
0.222781879404
10
-5.8846808497
20
0.219345580455
10
-6.03963940929
20
0.215909264201
10
-6.19459796863
20
0.212472932714
10
-6.34955652774
20
0.209036587747
10
-6.50451508666
20
0.205600230794
10
-6.6594736454
20
0.202163863137
10
-6.81443220399
20
0.198727485879
10
-6.96939076243
20
0.19529109998
10
-7.12434932074
20
0.191854706273
10
-7.27930787894
20
0.188418305489
10
-7.43426643702
20
0.18498189827
10
-7.58922499502
20
0.181545485184
10
-7.74418355292
20
0.178109066731
10
-7.89914211075
20
0.174672643358
10
-8.0541006685
20
0.171236215464
10
-8.20905922618
20
0.167799783405
10
-8.36401778379
20
0.164363347501
10
-8.51897634135
20
0.160926908039
10
-8.67393489886
20
0.15749046528
10
-8.82889345631
20
0.154054019458
10
-8.98385201372
20
0.150617570788
10
-9.13881057108
20
0.147181119463
10
-9.2937691284
20
0.14374466566
10
-9.44872768569
20
0.14030820954
10
-9.60368624294
20
0.13687175125
10
-9.75864480015
20
0.133435290927
10
-9.91360335733
20
0.129998828695
10
-10.0685619145
20
0.126562364668
10
-10.2235204716
20
0.123125898951
10
-10.3784790287
20
0.119689431642
10
-10.5334375858
20
0.116252962832
10
-10.6883961428
20
0.112816492602
10
-10.8433546999
20
0.109380021031
10
-10.9983132569
20
0.10594354819
10
-11.1532718139
20
0.102507074146
10
-11.3082303708
20
0.0990705989619
10
-11.4631889278
20
0.0956341226947
10
-11.6181474847
20
0.0921976453987
10
-11.7731060416
20
0.0887611671246
10
-11.9280645986
20
0.0853246879195
10
-12.0830231554
20
0.0818882078279
10
-12.2379817123
20
0.0784517268911
10
-12.3929402692
20
0.0750152451482
10
-12.547898826
20
0.0715787626358
10
-12.7028573829
20
0.0681422793883
10
-12.8578159397
20
0.0647057954382
10
-13.0127744965
20
0.0612693108158
10
-13.1677330533
20
0.0578328255501
10
-13.3226916101
20
0.0543963396682
10
-13.4776501669
20
0.0509598531956
10
-13.6326087237
20
0.0475233661568
10
-13.7875672804
20
0.0440868785746
10
-13.9425258372
20
0.0406503904708
10
-14.0974843939
20
0.0372139018658
10
-14.2524429507
20
0.0337774127793
10
-14.4074015074
20
0.0303409232297
10
-14.5623600641
20
0.0269044332346
10
-14.7173186209
20
0.0234679428107
10
-14.8722771776
20
0.0200314519739
10
-15.0272357343
20
0.0165949607393
10
-15.182194291
20
0.0131584691211
10
-15.3371528477
20
0.00972197713322
10
-15.4921114044
20
0.00628548478858
10
-15.647069961
20
0.00284899209963
10
-15.8020285177
20
-0.00058750092176
10
-15.9569870744
20
-0.00402399426426
10
-16.1119456311
20
-0.00746048791706
10
-16.2669041877
20
-0.0108969818698
10
-16.4218627444
20
-0.0143334761127
10
-16.576821301
20
-0.0177699706361
10
-16.7317798577
20
-0.0212064654312
10
-16.8867384143
20
-0.0246429604891
10
-17.041696971
20
-0.0280794558017
10
-17.1966555276
20
-0.031515951361
10
-17.3516140842
20
-0.0349524471593
10
-17.5065726408
20
-0.0383889431893
10
-17.6615311975
20
-0.041825439444
10
-17.8164897541
20
-0.0452619359167
10
-17.9714483107
20
-0.0486984326009
10
-18.1264068673
20
-0.0521349294904
10
-18.2813654239
20
-0.0555714265793
10
-18.4363239805
20
-0.0590079238616
10
-18.5912825371
20
-0.0624444213321
10
-18.7462410937
20
-0.0658809189852
10
-18.9011996503
20
-0.0693174168159
10
-19.0561582069
20
-0.0727539148193
10
-19.2111167635
20
-0.0761904129906
10
-19.3660753201
20
-0.0796269113253
10
-19.5210338767
20
-0.0830634098189
0
LWPOLYLINE
8
main_beam_width
70
0
90
100
10
-4.18011645641
20
0.278481916962
10
-4.33509077433
20
0.276812940666
10
-4.49006509381
20
0.275144059939
10
-4.64503941456
20
0.273475255759
10
-4.80001373634
20
0.271806513839
10
-4.95498805896
20
0.270137823237
10
-5.10996238228
20
0.268469175434
10
-5.2649367062
20
0.266800563695
10
-5.41991103062
20
0.265131982631
10
-5.57488535548
20
0.263463427873
10
-5.72985968071
20
0.261794895844
10
-5.88483400626
20
0.260126383589
10
-6.0398083321
20
0.258457888643
10
-6.1947826582
20
0.256789408934
10
-6.34975698451
20
0.255120942709
10
-6.50473131102
20
0.253452488472
10
-6.65970563771
20
0.251784044943
10
-6.81467996456
20
0.250115611016
10
-6.96965429155
20
0.248447185732
10
-7.12462861866
20
0.246778768258
10
-7.2796029459
20
0.245110357863
10
-7.43457727324
20
0.243441953903
10
-7.58955160067
20
0.241773555813
10
-7.7445259282
20
0.24010516309
10
-7.89950025581
20
0.238436775288
10
-8.05447458349
20
0.236768392008
10
-8.20944891124
20
0.235100012894
10
-8.36442323905
20
0.233431637626
10
-8.51939756692
20
0.231763265916
10
-8.67437189484
20
0.230094897504
10
-8.82934622282
20
0.228426532155
10
-8.98432055084
20
0.226758169655
10
-9.13929487891
20
0.225089809811
10
-9.29426920702
20
0.223421452445
10
-9.44924353516
20
0.221753097397
10
-9.60421786334
20
0.220084744518
10
-9.75919219156
20
0.218416393673
10
-9.91416651981
20
0.216748044737
10
-10.0691408481
20
0.215079697597
10
-10.2241151764
20
0.213411352147
10
-10.3790895047
20
0.211743008289
10
-10.5340638331
20
0.210074665933
10
-10.6890381614
20
0.208406324997
10
-10.8440124898
20
0.206737985402
10
-10.9989868183
20
0.205069647077
10
-11.1539611467
20
0.203401309955
10
-11.3089354752
20
0.201732973974
10
-11.4639098036
20
0.200064639076
10
-11.6188841321
20
0.198396305207
10
-11.7738584607
20
0.196727972316
10
-11.9288327892
20
0.195059640356
10
-12.0838071177
20
0.193391309283
10
-12.2387814463
20
0.191722979055
10
-12.3937557748
20
0.190054649633
10
-12.5487301034
20
0.188386320982
10
-12.703704432
20
0.186717993065
10
-12.8586787606
20
0.185049665851
10
-13.0136530892
20
0.183381339309
10
-13.1686274179
20
0.181713013411
10
-13.3236017465
20
0.180044688129
10
-13.4785760751
20
0.178376363438
10
-13.6335504038
20
0.176708039313
10
-13.7885247325
20
0.175039715732
10
-13.9434990611
20
0.173371392672
10
-14.0984733898
20
0.171703070113
10
-14.2534477185
20
0.170034748036
10
-14.4084220472
20
0.168366426423
10
-14.5633963759
20
0.166698105255
10
-14.7183707046
20
0.165029784515
10
-14.8733450333
20
0.163361464189
10
-15.0283193621
20
0.16169314426
10
-15.1832936908
20
0.160024824716
10
-15.3382680195
20
0.15835650554
10
-15.4932423483
20
0.156688186722
10
-15.648216677
20
0.155019868248
10
-15.8031910058
20
0.153351550107
10
-15.9581653345
20
0.151683232286
10
-16.1131396633
20
0.150014914776
10
-16.2681139921
20
0.148346597566
10
-16.4230883208
20
0.146678280647
10
-16.5780626496
20
0.145009964007
10
-16.7330369784
20
0.14334164764
10
-16.8880113072
20
0.141673331535
10
-17.042985636
20
0.140005015685
10
-17.1979599648
20
0.138336700082
10
-17.3529342936
20
0.136668384718
10
-17.5079086224
20
0.135000069585
10
-17.6628829512
20
0.133331754678
10
-17.81785728
20
0.131663439988
10
-17.9728316088
20
0.12999512551
10
-18.1278059376
20
0.128326811237
10
-18.2827802664
20
0.126658497163
10
-18.4377545953
20
0.124990183283
10
-18.5927289241
20
0.123321869592
10
-18.7477032529
20
0.121653556082
10
-18.9026775817
20
0.119985242751
10
-19.0576519106
20
0.118316929592
10
-19.2126262394
20
0.116648616601
10
-19.3676005683
20
0.114980303774
10
-19.5225748971
20
0.113311991105
0
TEXT
8
text
10
-19.4217950755
20
0.00677496280538
40
0.01
1

0
LINE
8
main_beam
10
-11.0052941773
20
0.393157117379
11
-10.9044940576
21
0.391305925225
0
LWPOLYLINE
8
main_beam_width
70
0
90
10
10
-11.0052225544
20
0.398272853281
10
-10.994020066
20
0.39807538052
10
-10.9828175774
20
0.397877913445
10
-10.9716150888
20
0.397680452028
10
-10.9604126
20
0.397482996242
10
-10.9492101112
20
0.39728554606
10
-10.9380076222
20
0.397088101456
10
-10.9268051332
20
0.396890662401
10
-10.9156026441
20
0.39669322887
10
-10.9044001548
20
0.396495800836
0
LWPOLYLINE
8
main_beam_width
70
0
90
10
10
-11.0053658006
20
0.388041348578
10
-10.9941685755
20
0.387827454689
10
-10.9829713504
20
0.38761355512
10
-10.9717741254
20
0.387399649897
10
-10.9605769006
20
0.387185739048
10
-10.9493796758
20
0.386971822601
10
-10.9381824511
20
0.386757900581
10
-10.9269852266
20
0.386543973016
10
-10.9157880021
20
0.386330039933
10
-10.9045907778
20
0.386116101357
0
TEXT
8
text
10
-11.0042935794
20
0.403140427638
40
0.01
1

0
LINE
8
main_beam
10
0.293951026147
20
-4.15539386507
11
0.42678761714
21
-11.1398413862
0
LWPOLYLINE
8
main_beam_width
70
0
90
30
10
0.305432764286
20
-4.15536242623
10
0.309767059961
20
-4.39620373596
10
0.314101605186
20
-4.63704504094
10
0.318436417102
20
-4.87788634085
10
0.322771514435
20
-5.11872763533
10
0.327106917679
20
-5.359568924
10
0.331442649313
20
-5.60041020642
10
0.335778734035
20
-5.84125148212
10
0.340115199044
20
-6.08209275059
10
0.344452074356
20
-6.32293401126
10
0.348789393172
20
-6.56377526349
10
0.353127192305
20
-6.80461650658
10
0.357465512671
20
-7.04545773977
10
0.361804399864
20
-7.28629896217
10
0.366143904831
20
-7.52714017282
10
0.370484084654
20
-7.76798137064
10
0.374825003483
20
-8.00882255441
10
0.379166733621
20
-8.24966372274
10
0.383509356829
20
-8.49050487409
10
0.387852965859
20
-8.73134600669
10
0.392197666295
20
-8.97218711853
10
0.396543578756
20
-9.21302820732
10
0.400890841543
20
-9.45386927043
10
0.40523961383
20
-9.69471030483
10
0.409590079531
20
-9.93555130702
10
0.413942451992
20
-10.1763922729
10
0.418296979692
20
-10.4172331979
10
0.422653953212
20
-10.6580740763
10
0.427013713715
20
-10.8989149017
10
0.431376663304
20
-11.1397556665
0
LWPOLYLINE
8
main_beam_width
70
0
90
30
10
0.28246836647
20
-4.15539839891
10
0.28729524921
20
-4.39624416035
10
0.292121882398
20
-4.63708992653
10
0.296948248893
20
-4.87793569779
10
0.301774329967
20
-5.11878147447
10
0.306600105125
20
-5.35962725698
10
0.311425551888
20
-5.60047304572
10
0.316250645557
20
-5.84131884119
10
0.321075358931
20
-6.08216464388
10
0.325899661993
20
-6.32301045438
10
0.33072352154
20
-6.56385627332
10
0.335546900757
20
-6.80470210139
10
0.340369758727
20
-7.04554793937
10
0.34519204985
20
-7.28639378814
10
0.350013723179
20
-7.52723964865
10
0.354834721625
20
-7.768085522
10
0.359654981037
20
-8.00893140941
10
0.364474429102
20
-8.24977731224
10
0.369292984055
20
-8.49062323207
10
0.374110553136
20
-8.73146917064
10
0.378927030749
20
-8.97231512997
10
0.383742296265
20
-9.21316111235
10
0.388556211368
20
-9.45400712042
10
0.393368616866
20
-9.6948531572
10
0.398179328823
20
-9.93569922619
10
0.402988133868
20
-10.1765453314
10
0.407794783487
20
-10.4173914777
10
0.412598987059
20
-10.6582376705
10
0.417400403371
20
-10.8990839162
10
0.422198630254
20
-11.1399302227
0
TEXT
8
text
10
0.434884261743
20
-11.0396693125
40
0.01
1

0
LINE
8
main_beam
10
53.2140506187
20
-0.0075778373113
11
2991.57524384
21
-0.0075778373113
0
LWPOLYLINE
8
main_beam_width
70
0
90
37
10
53.2140506187
20
0.0852510771007
10
134.835194875
20
0.0812565709253
10
216.456339131
20
0.0773201005023
10
298.077483387
20
0.0734501246874
10
379.698627643
20
0.069656639632
10
461.319771899
20
0.0659514850992
10
542.940916155
20
0.062348703444
10
624.562060411
20
0.0588649498988
10
706.183204667
20
0.0555199428785
10
787.804348924
20
0.0523369253097
10
869.42549318
20
0.049343079032
10
951.046637436
20
0.0465697912351
10
1032.66778169
20
0.0440526155188
10
1114.28892595
20
0.0418307111806
10
1195.9100702
20
0.0399455115933
10
1277.53121446
20
0.0384384178659
10
1359.15235872
20
0.0373474986626
10
1440.77350297
20
0.0367035234017
10
1522.39464723
20
0.0365260743431
10
1604.01579148
20
0.0368207455742
10
1685.63693574
20
0.0375782954247
10
1767.25808
20
0.0387760353154
10
1848.87922425
20
0.0403809962203
10
1930.50036851
20
0.0423539255489
10
2012.12151276
20
0.044653141938
10
2093.74265702
20
0.0472376027285
10
2175.36380128
20
0.0500689558569
10
2256.98494553
20
0.0531126568438
10
2338.60608979
20
0.0563383767615
10
2420.22723405
20
0.0597199470832
10
2501.8483783
20
0.0632350440721
10
2583.46952256
20
0.0668647551853
10
2665.09066681
20
0.0705931164236
10
2746.71181107
20
0.0744066701302
10
2828.33295533
20
0.0782940669149
10
2909.95409958
20
0.0822457199152
10
2991.57524384
20
0.0862535111423
0
LWPOLYLINE
8
main_beam_width
70
0
90
37
10
53.2140506187
20
-0.100406751723
10
134.835194875
20
-0.0964122455479
10
216.456339131
20
-0.0924757751249
10
298.077483387
20
-0.08860579931
10
379.698627643
20
-0.0848123142546
10
461.319771899
20
-0.0811071597218
10
542.940916155
20
-0.0775043780666
10
624.562060411
20
-0.0740206245214
10
706.183204667
20
-0.0706756175011
10
787.804348924
20
-0.0674925999323
10
869.42549318
20
-0.0644987536546
10
951.046637436
20
-0.0617254658577
10
1032.66778169
20
-0.0592082901414
10
1114.28892595
20
-0.0569863858032
10
1195.9100702
20
-0.0551011862159
10
1277.53121446
20
-0.0535940924885
10
1359.15235872
20
-0.0525031732852
10
1440.77350297
20
-0.0518591980243
10
1522.39464723
20
-0.0516817489657
10
1604.01579148
20
-0.0519764201968
10
1685.63693574
20
-0.0527339700473
10
1767.25808
20
-0.053931709938
10
1848.87922425
20
-0.0555366708429
10
1930.50036851
20
-0.0575096001715
10
2012.12151276
20
-0.0598088165606
10
2093.74265702
20
-0.0623932773511
10
2175.36380128
20
-0.0652246304795
10
2256.98494553
20
-0.0682683314664
10
2338.60608979
20
-0.0714940513841
10
2420.22723405
20
-0.0748756217058
10
2501.8483783
20
-0.0783907186947
10
2583.46952256
20
-0.0820204298079
10
2665.09066681
20
-0.0857487910462
10
2746.71181107
20
-0.0895623447528
10
2828.33295533
20
-0.0934497415375
10
2909.95409958
20
-0.0974013945378
10
2991.57524384
20
-0.101409185765
0
TEXT
8
text
10
2991.47524384
20
0.0024221626887
40
0.01
1

0
LINE
8
main_beam
10
0.42678761714
20
-11.1398413862
11
0.428711149076
21
-11.240979241
0
LWPOLYLINE
8
main_beam_width
70
0
90
10
10
0.431376663408
20
-11.1397556665
10
0.43158103627
20
-11.1509910255
10
0.431785412941
20
-11.1622263844
10
0.431989793447
20
-11.1734617433
10
0.43219417781
20
-11.1846971021
10
0.432398566054
20
-11.1959324608
10
0.432602958203
20
-11.2071678195
10
0.432807354281
20
-11.218403178
10
0.433011754312
20
-11.2296385365
10
0.433216158321
20
-11.240873895
0
LWPOLYLINE
8
main_beam_width
70
0
90
10
10
0.42219863015
20
-11.1399302227
10
0.422421705862
20
-11.1511695961
10
0.42264477776
20
-11.1624089696
10
0.422867845822
20
-11.1736483432
10
0.423090910023
20
-11.1848877169
10
0.42331397034
20
-11.1961270906
10
0.423537026749
20
-11.2073664644
10
0.423760079226
20
-11.2186058383
10
0.423983127746
20
-11.2298452123
10
0.424206172286
20
-11.2410845863
0
TEXT
8
text
10
0.436807793678
20
-11.1408071673
40
0.01
1

0
LINE
8
main_beam
10
0.426787617141
20
-11.1398413862
11
0.428711149076
21
-11.240979241
0
LWPOLYLINE
8
main_beam_width
70
0
90
10
10
0.431376663409
20
-11.1397556665
10
0.43158103627
20
-11.1509910255
10
0.431785412941
20
-11.1622263844
10
0.431989793447
20
-11.1734617433
10
0.43219417781
20
-11.1846971021
10
0.432398566054
20
-11.1959324608
10
0.432602958203
20
-11.2071678195
10
0.432807354281
20
-11.218403178
10
0.433011754312
20
-11.2296385365
10
0.433216158321
20
-11.240873895
0
LWPOLYLINE
8
main_beam_width
70
0
90
10
10
0.42219863015
20
-11.1399302227
10
0.422421705862
20
-11.1511695961
10
0.42264477776
20
-11.1624089696
10
0.422867845822
20
-11.1736483432
10
0.423090910023
20
-11.1848877169
10
0.42331397034
20
-11.1961270906
10
0.423537026749
20
-11.2073664644
10
0.423760079226
20
-11.2186058383
10
0.423983127746
20
-11.2298452123
10
0.424206172286
20
-11.2410845863
0
TEXT
8
text
10
0.436807793678
20
-11.1408071673
40
0.01
1

0
LINE
8
main_beam
10
-0.0163934440069
20
49.8289176209
11
-0.0163934440069
21
49.928913509
0
LWPOLYLINE
8
main_beam_width
70
0
90
10
10
-0.109630687745
20
49.8289858366
10
-0.109630142896
20
49.8400889113
10
-0.109629598048
20
49.851191986
10
-0.1096290532
20
49.8622950607
10
-0.109628508353
20
49.8733981354
10
-0.109627963506
20
49.8845012102
10
-0.109627418659
20
49.8956042849
10
-0.109626873813
20
49.9067073596
10
-0.109626328968
20
49.9178104343
10
-0.109625784122
20
49.928913509
0
LWPOLYLINE
8
main_beam_width
70
0
90
10
10
0.0768438064259
20
49.8288494052
10
0.0768432608333
20
49.839967639
10
0.0768427152412
20
49.8510858727
10
0.0768421696495
20
49.8622041065
10
0.0768416240582
20
49.8733223402
10
0.0768410784674
20
49.884440574
10
0.0768405328771
20
49.8955588078
10
0.0768399872872
20
49.9066770415
10
0.0768394416977
20
49.9177952753
10
0.0768388961087
20
49.928913509
0
TEXT
8
text
10
-0.0263934440069
20
49.828913509
40
0.01
1

0
LINE
8
main_beam
10
53.2140506187
20
-0.0075778373113
11
53.1140547305
21
-0.0075778373113
0
LWPOLYLINE
8
main_beam_width
70
0
90
10
10
53.2140506187
20
-0.100406751723
10
53.2029324177
20
-0.100407291805
10
53.1918142167
20
-0.100407831888
10
53.1806960158
20
-0.10040837197
10
53.1695778148
20
-0.100408912054
10
53.1584596139
20
-0.100409452137
10
53.1473414129
20
-0.100409992221
10
53.1362232119
20
-0.100410532306
10
53.125105011
20
-0.100411072391
10
53.11398681
20
-0.100411612477
0
LWPOLYLINE
8
main_beam_width
70
0
90
10
10
53.2140506187
20
0.0852510771007
10
53.2029475111
20
0.0852516164494
10
53.1918444036
20
0.0852521557985
10
53.1807412961
20
0.0852526951482
10
53.1696381886
20
0.0852532344982
10
53.1585350811
20
0.0852537738487
10
53.1474319735
20
0.0852543131997
10
53.136328866
20
0.0852548525511
10
53.1252257585
20
0.0852553919029
10
53.114122651
20
0.0852559312552
0
TEXT
8
text
10
53.2140547305
20
-0.0175778373113
40
0.01
1

0
LINE
8
main_beam
10
0.293951026147
20
-4.15539386507
11
0.426787617141
21
-11.1398413862
0
LWPOLYLINE
8
main_beam_width
70
0
90
30
10
0.305432764286
20
-4.15536242623
10
0.309767059961
20
-4.39620373596
10
0.314101605186
20
-4.63704504094
10
0.318436417102
20
-4.87788634085
10
0.322771514435
20
-5.11872763533
10
0.327106917679
20
-5.359568924
10
0.331442649313
20
-5.60041020642
10
0.335778734035
20
-5.84125148212
10
0.340115199044
20
-6.08209275059
10
0.344452074356
20
-6.32293401126
10
0.348789393173
20
-6.56377526349
10
0.353127192306
20
-6.80461650658
10
0.357465512671
20
-7.04545773977
10
0.361804399864
20
-7.28629896217
10
0.366143904831
20
-7.52714017282
10
0.370484084654
20
-7.76798137064
10
0.374825003483
20
-8.00882255441
10
0.379166733621
20
-8.24966372274
10
0.383509356829
20
-8.49050487409
10
0.387852965859
20
-8.73134600669
10
0.392197666295
20
-8.97218711853
10
0.396543578756
20
-9.21302820732
10
0.400890841543
20
-9.45386927043
10
0.40523961383
20
-9.69471030483
10
0.409590079531
20
-9.93555130702
10
0.413942451992
20
-10.1763922729
10
0.418296979692
20
-10.4172331979
10
0.422653953212
20
-10.6580740763
10
0.427013713715
20
-10.8989149017
10
0.431376663304
20
-11.1397556665
0
LWPOLYLINE
8
main_beam_width
70
0
90
30
10
0.28246836647
20
-4.15539839891
10
0.28729524921
20
-4.39624416035
10
0.292121882398
20
-4.63708992653
10
0.296948248893
20
-4.87793569779
10
0.301774329967
20
-5.11878147447
10
0.306600105125
20
-5.35962725698
10
0.311425551888
20
-5.60047304572
10
0.316250645557
20
-5.84131884119
10
0.321075358931
20
-6.08216464388
10
0.325899661993
20
-6.32301045438
10
0.33072352154
20
-6.56385627332
10
0.335546900757
20
-6.80470210139
10
0.340369758727
20
-7.04554793937
10
0.34519204985
20
-7.28639378814
10
0.350013723179
20
-7.52723964865
10
0.354834721626
20
-7.768085522
10
0.359654981037
20
-8.00893140941
10
0.364474429102
20
-8.24977731224
10
0.369292984055
20
-8.49062323207
10
0.374110553136
20
-8.73146917064
10
0.378927030749
20
-8.97231512997
10
0.383742296265
20
-9.21316111235
10
0.388556211368
20
-9.45400712042
10
0.393368616866
20
-9.6948531572
10
0.398179328823
20
-9.93569922619
10
0.402988133868
20
-10.1765453314
10
0.407794783487
20
-10.4173914777
10
0.412598987059
20
-10.6582376705
10
0.417400403371
20
-10.8990839162
10
0.422198630255
20
-11.1399302227
0
TEXT
8
text
10
0.434884261743
20
-11.0396693125
40
0.01
1

0
LINE
8
main_beam
10
53.1140547305
20
-0.0075778373113
11
53.2140506187
21
-0.0075778373113
0
LWPOLYLINE
8
main_beam_width
70
0
90
10
10
53.114122651
20
0.0852559874083
10
53.1252257585
20
0.0852554418168
10
53.1363288661
20
0.0852548962257
10
53.1474319736
20
0.0852543506351
10
53.1585350811
20
0.0852538050449
10
53.1696381886
20
0.0852532594551
10
53.1807412961
20
0.0852527138659
10
53.1918444036
20
0.085252168277
10
53.2029475111
20
0.0852516226886
10
53.2140506187
20
0.0852510771007
0
LWPOLYLINE
8
main_beam_width
70
0
90
10
10
53.11398681
20
-0.100411668706
10
53.1251050109
20
-0.100411122373
10
53.1362232119
20
-0.10041057604
10
53.1473414129
20
-0.100410029708
10
53.1584596138
20
-0.100409483376
10
53.1695778148
20
-0.100408937044
10
53.1806960158
20
-0.100408390713
10
53.1918142167
20
-0.100407844383
10
53.2029324177
20
-0.100407298053
10
53.2140506187
20
-0.100406751723
0
TEXT
8
text
10
53.1140506187
20
0.0024221626887
40
0.01
1

0
LINE
8
main_beam
10
2.12385486975e-09
20
2.12291123569e-09
11
0.0249447982976
21
-0.0880900800302
0
LWPOLYLINE
8
main_beam_width
70
0
90
10
10
0.0967569769719
20
0.096713845978
10
0.0995355690943
20
0.0869030180669
10
0.102314161217
20
0.0770921901559
10
0.105092753339
20
0.0672813622449
10
0.107871345462
20
0.057470534334
10
0.110649937585
20
0.0476597064231
10
0.113428529708
20
0.0378488785122
10
0.116207121832
20
0.0280380506015
10
0.118985713955
20
0.0182272226907
10
0.121764306079
20
0.00841639478003
0
LWPOLYLINE
8
main_beam_width
70
0
90
10
10
-0.0967612905358
20
-0.096718157619
10
-0.0939965933579
20
-0.106482900925
10
-0.0912318961801
20
-0.116247644231
10
-0.0884671990025
20
-0.126012387537
10
-0.0857025018251
20
-0.135777130843
10
-0.0829378046478
20
-0.145541874149
10
-0.0801731074707
20
-0.155306617455
10
-0.0774084102938
20
-0.165071360761
10
-0.0746437131171
20
-0.174836104067
10
-0.0718790159405
20
-0.184600847374
0
TEXT
8
text
10
0.00732042761013
20
0.0108512235688
40
0.01
1

0
LINE
8
main_beam
10
-13.0049569901
20
0.429880884364
11
-11.0052941773
21
0.393157117379
0
LWPOLYLINE
8
main_beam_width
70
0
90
10
10
-13.0049042396
20
0.433648637319
10
-12.782717684
20
0.429701750893
10
-12.5605310353
20
0.425759936561
10
-12.3383443026
20
0.421822690171
10
-12.1161574944
20
0.417889558665
10
-11.8939706181
20
0.413960136334
10
-11.6717836803
20
0.410034060739
10
-11.449596687
20
0.406111008581
10
-11.2274096434
20
0.402190691697
10
-11.0052225544
20
0.398272853281
0
LWPOLYLINE
8
main_beam_width
70
0
90
10
10
-13.0050097408
20
0.426113112051
10
-12.7828267825
20
0.421899159778
10
-12.5606439173
20
0.417680135432
10
-12.338461136
20
0.413456543168
10
-12.1162784303
20
0.409228836042
10
-11.8940957927
20
0.404997419763
10
-11.6719132165
20
0.400762656769
10
-11.4497306959
20
0.396524870358
10
-11.2275482255
20
0.392284348694
10
-11.0053658006
20
0.388041348578
0
TEXT
8
text
10
-11.1050936991
20
0.404991619792
40
0.01
1

0
LINE
8
main_beam
10
2.12390993681e-09
20
2.1229640268e-09
11
0.0249447982977
21
-0.0880900800301
0
LWPOLYLINE
8
main_beam_width
70
0
90
10
10
0.096756976972
20
0.096713845978
10
0.0995355690943
20
0.0869030180669
10
0.102314161217
20
0.0770921901559
10
0.105092753339
20
0.0672813622449
10
0.107871345462
20
0.057470534334
10
0.110649937585
20
0.0476597064231
10
0.113428529709
20
0.0378488785123
10
0.116207121832
20
0.0280380506015
10
0.118985713955
20
0.0182272226908
10
0.121764306079
20
0.00841639478008
0
LWPOLYLINE
8
main_beam_width
70
0
90
10
10
-0.0967612905357
20
-0.0967181576189
10
-0.0939965933578
20
-0.106482900925
10
-0.09123189618
20
-0.116247644231
10
-0.0884671990025
20
-0.126012387537
10
-0.085702501825
20
-0.135777130843
10
-0.0829378046478
20
-0.145541874149
10
-0.0801731074707
20
-0.155306617455
10
-0.0774084102938
20
-0.165071360761
10
-0.074643713117
20
-0.174836104067
10
-0.0718790159404
20
-0.184600847374
0
TEXT
8
text
10
0.00732042761018
20
0.0108512235689
40
0.01
1

0
LINE
8
main_beam
10
0.0882163923428
20
-0.0250230531795
11
2.12391076948e-09
21
2.12296400598e-09
0
LWPOLYLINE
8
main_beam_width
70
0
90
10
10
-0.00875257551943
20
-0.121678504842
10
-0.0185313216322
20
-0.118905132928
10
-0.0283100677449
20
-0.116131761014
10
-0.0380888138578
20
-0.1133583891
10
-0.0478675599706
20
-0.110585017186
10
-0.0576463060836
20
-0.107811645272
10
-0.0674250521965
20
-0.105038273358
10
-0.0772037983096
20
-0.102264901445
10
-0.0869825444226
20
-0.0994915295319
10
-0.0967612905357
20
-0.0967181576189
0
LWPOLYLINE
8
main_beam_width
70
0
90
10
10
0.185181018938
20
0.0716280712524
10
0.175356125386
20
0.0744153795546
10
0.165531231834
20
0.0772026878569
10
0.155706338282
20
0.0799899961594
10
0.145881444731
20
0.0827773044621
10
0.136056551179
20
0.0855646127649
10
0.126231657627
20
0.0883519210679
10
0.116406764075
20
0.0911392293711
10
0.106581870524
20
0.0939265376745
10
0.096756976972
20
0.096713845978
0
TEXT
8
text
10
0.0934756502581
20
-0.0369093897157
40
0.01
1

0
LINE
8
main_beam
10
0.0249447982976
20
-0.0880900800302
11
0.0524720000037
21
-19.3572204993
0
LWPOLYLINE
8
main_beam_width
70
0
90
10
10
0.121759591539
20
0.00841169548271
10
0.124987167293
20
-2.14338838458
10
0.128214773871
20
-4.2951884646
10
0.131442411129
20
-6.44698854457
10
0.134670078922
20
-8.59878862451
10
0.137897777104
20
-10.7505887044
10
0.141125505534
20
-12.9023887842
10
0.144353264068
20
-15.054188864
10
0.147581052566
20
-17.2059889438
10
0.150808870886
20
-19.3577890235
0
LWPOLYLINE
8
main_beam_width
70
0
90
10
10
-0.0718837314152
20
-0.184605547602
10
-0.0689926590529
20
-2.31480132364
10
-0.0661016168884
20
-4.44499709972
10
-0.0632106047802
20
-6.57519287585
10
-0.0603196225879
20
-8.70538865201
10
-0.0574286701715
20
-10.8355844282
10
-0.0545377473924
20
-12.9657802045
10
-0.0516468541125
20
-15.0959759808
10
-0.0487559901945
20
-17.2261717571
10
-0.045865155502
20
-19.3563675335
0
TEXT
8
text
10
0.0623291334641
20
-19.2572063157
40
0.01
1

0
LINE
8
main_beam
10
2.12390460774e-09
20
2.12295686586e-09
11
-0.0163934440069
21
49.8289176209
0
LWPOLYLINE
8
main_beam_width
70
0
90
10
10
-0.0967660420206
20
-0.0967229069857
10
-0.0981945842251
20
5.4505780648
10
-0.0996233358214
20
10.9978790365
10
-0.101052299413
20
16.5451800082
10
-0.102481477646
20
22.0924809798
10
-0.103910873208
20
27.6397819513
10
-0.105340488831
20
33.1870829227
10
-0.106770327291
20
38.7343838941
10
-0.108200391411
20
44.2816848654
10
-0.109630684057
20
49.8289858366
0
LWPOLYLINE
8
main_beam_width
70
0
90
10
10
0.0967522264344
20
0.0967090975581
10
0.0945393241542
20
5.62250246479
10
0.0923266297245
20
11.1482958321
10
0.0901141457202
20
16.6740891995
10
0.0879018747571
20
22.1998825669
10
0.0856898194934
20
27.7256759344
10
0.08347798263
20
33.251469302
10
0.0812663669117
20
38.7772626697
10
0.0790549751279
20
44.3030560374
10
0.0768438101133
20
49.8288494052
0
TEXT
8
text
10
-0.0263605440049
20
49.7289143364
40
0.01
1

0
LINE
8
main_beam
10
-19.5219461967
20
0.0151267847645
11
2.12390460774e-09
21
2.12295686933e-09
0
LWPOLYLINE
8
main_beam_width
70
0
90
10
10
-19.5225749132
20
0.113315234603
10
-17.3426496755
20
0.111469983884
10
-15.1627244379
20
0.109624763912
10
-12.9827992002
20
0.107779574836
10
-10.8028739625
20
0.105934416805
10
-8.62294872475
20
0.104089289966
10
-6.44302348699
20
0.10224419447
10
-4.26309824921
20
0.100399130469
10
-2.0831730114
20
0.098554098114
10
0.0967522264344
20
0.0967090975581
0
LWPOLYLINE
8
main_beam_width
70
0
90
10
10
-19.5210338944
20
-0.0830617635464
10
-17.3627819107
20
-0.0845795464716
10
-15.204529927
20
-0.0860973595355
10
-13.0462779434
20
-0.0876152028809
10
-10.8880259598
20
-0.0891330766519
10
-8.72977397616
20
-0.090650980993
10
-6.57152199259
20
-0.09216891605
10
-4.41327000904
20
-0.0936868819693
10
-2.25501802552
20
-0.0952048788985
10
-0.0967660420206
20
-0.0967229069857
0
TEXT
8
text
10
-0.0999922192542
20
0.0100774851356
40
0.01
1

0
LINE
8
main_beam
10
53.1140547305
20
-0.0075778373113
11
0.0882163923428
21
-0.0250230531795
0
LWPOLYLINE
8
main_beam_width
70
0
90
10
10
53.11398681
20
-0.100411672382
10
47.2114596778
20
-0.102774169934
10
41.3089325457
20
-0.105136929374
10
35.4064054136
20
-0.107499947188
10
29.5038782817
20
-0.109863219921
10
23.6013511498
20
-0.112226744181
10
17.6988240181
20
-0.11459051663
10
11.7962968864
20
-0.116954533989
10
5.89376975474
20
-0.119318793035
10
-0.00875737679906
20
-0.121683290598
0
LWPOLYLINE
8
main_beam_width
70
0
90
10
10
53.114122651
20
0.0852559837319
10
47.2331286033
20
0.083740231242
10
41.3521345555
20
0.0822247387454
10
35.4711405076
20
0.080709502766
10
29.5901464597
20
0.0791945198875
10
23.7091524116
20
0.0776797867519
10
17.8281583635
20
0.0761653000584
10
11.9471643153
20
0.0746510565622
10
6.06617026699
20
0.0731370530733
10
0.185176218621
20
0.0716232864558
0
TEXT
8
text
10
0.188219676877
20
-0.0349901531774
40
0.01
1

0
LINE
8
main_beam
10
0.0882163923428
20
-0.0250230531795
11
53.1140547305
21
-0.0075778373113
0
LWPOLYLINE
8
main_beam_width
70
0
90
10
10
0.185176218621
20
0.0716232864558
10
6.06617026699
20
0.0731370530733
10
11.9471643153
20
0.0746510565621
10
17.8281583635
20
0.0761653000584
10
23.7091524116
20
0.0776797867519
10
29.5901464597
20
0.0791945198875
10
35.4711405076
20
0.080709502766
10
41.3521345555
20
0.0822247387454
10
47.2331286033
20
0.083740231242
10
53.114122651
20
0.0852559837319
0
LWPOLYLINE
8
main_beam_width
70
0
90
10
10
-0.00875737679908
20
-0.121683290598
10
5.89376975474
20
-0.119318793035
10
11.7962968864
20
-0.116954533989
10
17.6988240181
20
-0.11459051663
10
23.6013511498
20
-0.112226744181
10
29.5038782817
20
-0.109863219921
10
35.4064054136
20
-0.107499947188
10
41.3089325457
20
-0.105136929374
10
47.2114596778
20
-0.102774169934
10
53.11398681
20
-0.100411672382
0
TEXT
8
text
10
53.014051446
20
0.00238926268666
40
0.01
1

0
LINE
8
main_beam
10
0.428711149076
20
-11.240979241
11
0.430436237114
21
-11.3421206752
0
LWPOLYLINE
8
main_beam_width
70
0
90
10
10
0.433216176197
20
-11.2408738945
10
0.433394458053
20
-11.2521152277
10
0.433572748405
20
-11.2633565607
10
0.43375104733
20
-11.2745978935
10
0.433929354904
20
-11.2858392262
10
0.434107671207
20
-11.2970805588
10
0.434285996318
20
-11.3083218912
10
0.434464330317
20
-11.3195632234
10
0.434642673285
20
-11.3308045555
10
0.434821025304
20
-11.3420458874
0
LWPOLYLINE
8
main_beam_width
70
0
90
10
10
0.424206190161
20
-11.2410845859
10
0.424411253586
20
-11.2523191272
10
0.424616308523
20
-11.2635536687
10
0.424821354898
20
-11.2747882103
10
0.425026392633
20
-11.286022752
10
0.425231421648
20
-11.2972572939
10
0.425436441866
20
-11.308491836
10
0.425641453205
20
-11.3197263782
10
0.425846455585
20
-11.3309609205
10
0.426051448924
20
-11.342195463
0
TEXT
8
text
10
0.43872941139
20
-11.2419646806
40
0.01
1

0
LINE
8
main_beam
10
0.428711149076
20
-11.240979241
11
0.430436237114
21
-11.3421206752
0
LWPOLYLINE
8
main_beam_width
70
0
90
10
10
0.433216176197
20
-11.2408738945
10
0.433394458053
20
-11.2521152277
10
0.433572748405
20
-11.2633565607
10
0.43375104733
20
-11.2745978935
10
0.433929354904
20
-11.2858392262
10
0.434107671207
20
-11.2970805588
10
0.434285996318
20
-11.3083218912
10
0.434464330317
20
-11.3195632234
10
0.434642673285
20
-11.3308045555
10
0.434821025304
20
-11.3420458874
0
LWPOLYLINE
8
main_beam_width
70
0
90
10
10
0.424206190161
20
-11.2410845859
10
0.424411253585
20
-11.2523191272
10
0.424616308523
20
-11.2635536687
10
0.424821354898
20
-11.2747882103
10
0.425026392632
20
-11.286022752
10
0.425231421648
20
-11.2972572939
10
0.425436441866
20
-11.308491836
10
0.425641453205
20
-11.3197263782
10
0.425846455585
20
-11.3309609205
10
0.426051448923
20
-11.342195463
0
TEXT
8
text
10
0.438729411389
20
-11.2419646806
40
0.01
1

0
LINE
8
Mirrors
10
0.177470393824
20
-19.3578941528
11
0.176751593613
21
-19.4573461364
0
LINE
8
Mirrors
10
-0.0732497607929
20
-19.4566300902
11
-0.0725230766374
21
-19.3560872974
0
LINE
8
Mirrors
10
-0.0725953508557
20
-19.3660870362
11
0.177398119606
21
-19.3678938917
0
LWPOLYLINE
8
Mirrors
70
0
90
60
10
-0.0725230766374
20
-19.3560872974
10
-0.068212956946
20
-19.3561340234
10
-0.0639028333052
20
-19.356180203
10
-0.0595927057149
20
-19.3562258361
10
-0.0552825741752
20
-19.3562709228
10
-0.0509724386861
20
-19.3563154631
10
-0.0466622992475
20
-19.3563594569
10
-0.0423521558595
20
-19.3564029043
10
-0.0380420085221
20
-19.3564458052
10
-0.0337318572352
20
-19.3564881597
10
-0.0294217019989
20
-19.3565299678
10
-0.0251115428133
20
-19.3565712294
10
-0.0208013796782
20
-19.3566119447
10
-0.0164912125937
20
-19.3566521134
10
-0.0121810415598
20
-19.3566917358
10
-0.00787086657654
20
-19.3567308117
10
-0.00356068764387
20
-19.3567693412
10
0.000749495238202
20
-19.3568073242
10
0.00505968206966
20
-19.3568447608
10
0.00936987285051
20
-19.356881651
10
0.0136800675807
20
-19.3569179948
10
0.0179902662604
20
-19.3569537921
10
0.0223004688894
20
-19.356989043
10
0.0266106754677
20
-19.3570237475
10
0.0309208859955
20
-19.3570579055
10
0.0352311004726
20
-19.3570915172
10
0.0395413188992
20
-19.3571245823
10
0.043851541275
20
-19.3571571011
10
0.0481617676003
20
-19.3571890734
10
0.052471997875
20
-19.3572204993
10
0.052471997875
20
-19.3572204993
10
0.056782232099
20
-19.3572513788
10
0.0610924702724
20
-19.3572817118
10
0.0654027123952
20
-19.3573114984
10
0.0697129584673
20
-19.3573407386
10
0.0740232084888
20
-19.3573694323
10
0.0783334624598
20
-19.3573975797
10
0.08264372038
20
-19.3574251806
10
0.0869539822497
20
-19.357452235
10
0.0912642480688
20
-19.357478743
10
0.0955745178372
20
-19.3575047046
10
0.099884791555
20
-19.3575301198
10
0.104195069222
20
-19.3575549886
10
0.108505350839
20
-19.3575793109
10
0.112815636405
20
-19.3576030867
10
0.11712592592
20
-19.3576263162
10
0.121436219385
20
-19.3576489992
10
0.125746516799
20
-19.3576711358
10
0.130056818163
20
-19.3576927259
10
0.134367123476
20
-19.3577137696
10
0.138677432738
20
-19.3577342669
10
0.14298774595
20
-19.3577542178
10
0.147298063111
20
-19.3577736222
10
0.151608384222
20
-19.3577924802
10
0.155918709282
20
-19.3578107917
10
0.160229038292
20
-19.3578285568
10
0.16453937125
20
-19.3578457755
10
0.168849708159
20
-19.3578624477
10
0.173160049017
20
-19.3578785735
10
0.177470393824
20
-19.3578941528
0
LINE
8
Mirrors
10
0.176751593613
20
-19.4573461364
11
-0.0732497607929
21
-19.4566300902
0
TEXT
8
text
10
0.0146122875016
20
-19.4194894192
40
0.025
1
SR3
0
LINE
8
Mirrors
10
2991.57524065
20
0.117422162689
11
2991.67469524
21
0.117422162689
0
LINE
8
Mirrors
10
2991.67578607
20
-0.132577837311
11
2991.57524065
21
-0.132577837311
0
LINE
8
Mirrors
10
2991.58524065
20
-0.132577837311
11
2991.58524065
21
0.117422162689
0
LWPOLYLINE
8
Mirrors
70
0
90
60
10
2991.57524065
20
-0.132577837311
10
2991.57524093
20
-0.128267492484
10
2991.5752412
20
-0.123957147656
10
2991.57524146
20
-0.119646802829
10
2991.57524171
20
-0.115336458001
10
2991.57524195
20
-0.111026113173
10
2991.57524218
20
-0.106715768346
10
2991.5752424
20
-0.102405423518
10
2991.57524261
20
-0.0980950786907
10
2991.57524281
20
-0.0937847338631
10
2991.575243
20
-0.0894743890355
10
2991.57524318
20
-0.0851640442079
10
2991.57524335
20
-0.0808536993803
10
2991.57524351
20
-0.0765433545527
10
2991.57524367
20
-0.0722330097252
10
2991.57524381
20
-0.0679226648976
10
2991.57524394
20
-0.06361232007
10
2991.57524406
20
-0.0593019752424
10
2991.57524417
20
-0.0549916304148
10
2991.57524428
20
-0.0506812855872
10
2991.57524437
20
-0.0463709407596
10
2991.57524445
20
-0.0420605959321
10
2991.57524453
20
-0.0377502511045
10
2991.57524459
20
-0.0334399062769
10
2991.57524464
20
-0.0291295614493
10
2991.57524469
20
-0.0248192166217
10
2991.57524472
20
-0.0205088717941
10
2991.57524475
20
-0.0161985269665
10
2991.57524476
20
-0.011888182139
10
2991.57524477
20
-0.00757783731137
10
2991.57524477
20
-0.00757783731137
10
2991.57524476
20
-0.00326749248378
10
2991.57524475
20
0.00104285234381
10
2991.57524472
20
0.00535319717139
10
2991.57524469
20
0.00966354199898
10
2991.57524464
20
0.0139738868266
10
2991.57524459
20
0.0182842316542
10
2991.57524453
20
0.0225945764817
10
2991.57524445
20
0.0269049213093
10
2991.57524437
20
0.0312152661369
10
2991.57524428
20
0.0355256109645
10
2991.57524417
20
0.0398359557921
10
2991.57524406
20
0.0441463006197
10
2991.57524394
20
0.0484566454473
10
2991.57524381
20
0.0527669902748
10
2991.57524367
20
0.0570773351024
10
2991.57524351
20
0.06138767993
10
2991.57524335
20
0.0656980247576
10
2991.57524318
20
0.0700083695852
10
2991.575243
20
0.0743187144128
10
2991.57524281
20
0.0786290592404
10
2991.57524261
20
0.0829394040679
10
2991.5752424
20
0.0872497488955
10
2991.57524218
20
0.0915600937231
10
2991.57524195
20
0.0958704385507
10
2991.57524171
20
0.100180783378
10
2991.57524146
20
0.104491128206
10
2991.5752412
20
0.108801473033
10
2991.57524093
20
0.113111817861
10
2991.57524065
20
0.117422162689
0
LINE
8
Mirrors
10
2991.67469524
20
0.117422162689
11
2991.67578607
21
-0.132577837311
0
TEXT
8
text
10
2991.57524065
20
-0.0200778373114
40
0.025
1
ETMX
0
LINE
8
Mirrors
10
-0.141393448252
20
2988.29010354
11
-0.141393448252
21
2988.38955813
0
LINE
8
Mirrors
10
0.108606551748
20
2988.39064896
11
0.108606551748
21
2988.29010354
0
LINE
8
Mirrors
10
0.108606551748
20
2988.30010354
11
-0.141393448252
21
2988.30010354
0
LWPOLYLINE
8
Mirrors
70
0
90
60
10
0.108606551748
20
2988.29010354
10
0.10429620692
20
2988.29010382
10
0.0999858620926
20
2988.29010409
10
0.0956755172651
20
2988.29010435
10
0.0913651724375
20
2988.2901046
10
0.0870548276099
20
2988.29010484
10
0.0827444827823
20
2988.29010507
10
0.0784341379547
20
2988.29010529
10
0.0741237931271
20
2988.2901055
10
0.0698134482995
20
2988.2901057
10
0.065503103472
20
2988.29010589
10
0.0611927586444
20
2988.29010607
10
0.0568824138168
20
2988.29010624
10
0.0525720689892
20
2988.2901064
10
0.0482617241616
20
2988.29010656
10
0.043951379334
20
2988.2901067
10
0.0396410345064
20
2988.29010683
10
0.0353306896789
20
2988.29010695
10
0.0310203448513
20
2988.29010706
10
0.0267100000237
20
2988.29010717
10
0.0223996551961
20
2988.29010726
10
0.0180893103685
20
2988.29010734
10
0.0137789655409
20
2988.29010742
10
0.00946862071334
20
2988.29010748
10
0.00515827588575
20
2988.29010753
10
0.000847931058164
20
2988.29010758
10
-0.00346241376942
20
2988.29010761
10
-0.00777275859701
20
2988.29010764
10
-0.0120831034246
20
2988.29010765
10
-0.0163934482522
20
2988.29010766
10
-0.0163934482522
20
2988.29010766
10
-0.0207037930798
20
2988.29010765
10
-0.0250141379074
20
2988.29010764
10
-0.0293244827349
20
2988.29010761
10
-0.0336348275625
20
2988.29010758
10
-0.0379451723901
20
2988.29010753
10
-0.0422555172177
20
2988.29010748
10
-0.0465658620453
20
2988.29010742
10
-0.0508762068729
20
2988.29010734
10
-0.0551865517005
20
2988.29010726
10
-0.059496896528
20
2988.29010717
10
-0.0638072413556
20
2988.29010706
10
-0.0681175861832
20
2988.29010695
10
-0.0724279310108
20
2988.29010683
10
-0.0767382758384
20
2988.2901067
10
-0.081048620666
20
2988.29010656
10
-0.0853589654936
20
2988.2901064
10
-0.0896693103211
20
2988.29010624
10
-0.0939796551487
20
2988.29010607
10
-0.0982899999763
20
2988.29010589
10
-0.102600344804
20
2988.2901057
10
-0.106910689631
20
2988.2901055
10
-0.111221034459
20
2988.29010529
10
-0.115531379287
20
2988.29010507
10
-0.119841724114
20
2988.29010484
10
-0.124152068942
20
2988.2901046
10
-0.128462413769
20
2988.29010435
10
-0.132772758597
20
2988.29010409
10
-0.137083103425
20
2988.29010382
10
-0.141393448252
20
2988.29010354
0
LINE
8
Mirrors
10
-0.141393448252
20
2988.38955813
11
0.108606551748
21
2988.39064896
0
TEXT
8
text
10
-0.0663934482522
20
2988.32760354
40
0.025
1
ETMY
0
LINE
8
Mirrors
10
0.134380236173
20
0.134320334
11
0.191123712967
21
0.0775515515999
0
LINE
8
Mirrors
10
-0.0780118527562
20
-0.190713855746
11
-0.134380236173
21
-0.134320334
0
LINE
8
Mirrors
10
-0.128724643163
20
-0.139978449208
11
0.140035829184
21
0.128662218793
0
LINE
8
Mirrors
10
-0.134380236173
20
-0.134320334
11
0.134380236173
21
0.134320334
0
LINE
8
Mirrors
10
0.191123712967
20
0.0775515515999
11
-0.0780118527562
21
-0.190713855746
0
TEXT
8
text
10
0.00827796505274
20
-0.0382905760365
40
0.02
1
BS
0
LINE
8
Mirrors
10
0.551787000485
20
-11.1386203879
11
0.553678176383
21
-11.2380569866
0
LINE
8
Mirrors
10
0.303744121791
20
-11.2439014954
11
0.301832203098
21
-11.1433742562
0
LINE
8
Mirrors
10
0.302022357827
20
-11.1533724481
11
0.551977155214
21
-11.1486185798
0
LWPOLYLINE
8
Mirrors
70
0
90
60
10
0.301832203098
20
-11.1433742562
10
0.30614027841
20
-11.1432139414
10
0.310448406025
20
-11.1430563767
10
0.314756585941
20
-11.142901562
10
0.319064818156
20
-11.1427494971
10
0.323373102668
20
-11.142600182
10
0.327681439477
20
-11.1424536165
10
0.331989828581
20
-11.1423098007
10
0.336298269977
20
-11.1421687344
10
0.340606763665
20
-11.1420304176
10
0.344915309644
20
-11.1418948501
10
0.349223907912
20
-11.141762032
10
0.353532558468
20
-11.1416319632
10
0.357841261311
20
-11.1415046435
10
0.362150016439
20
-11.141380073
10
0.366458823853
20
-11.1412582516
10
0.37076768355
20
-11.1411391793
10
0.37507659553
20
-11.1410228559
10
0.379385559793
20
-11.1409092815
10
0.383694576338
20
-11.1407984561
10
0.388003645163
20
-11.1406903795
10
0.392312766268
20
-11.1405850518
10
0.396621939653
20
-11.1404824729
10
0.400931165318
20
-11.1403826428
10
0.405240443261
20
-11.1402855615
10
0.409549773483
20
-11.140191229
10
0.413859155982
20
-11.1400996452
10
0.41816859076
20
-11.1400108101
10
0.422478077816
20
-11.1399247238
10
0.426787617149
20
-11.1398413862
10
0.426787617149
20
-11.1398413862
10
0.43109720876
20
-11.1397607973
10
0.435406852649
20
-11.1396829572
10
0.439716548816
20
-11.1396078657
10
0.44402629726
20
-11.139535523
10
0.448336097983
20
-11.1394659291
10
0.452645950984
20
-11.1393990839
10
0.456955856264
20
-11.1393349875
10
0.461265813823
20
-11.1392736399
10
0.465575823662
20
-11.1392150411
10
0.469885885781
20
-11.1391591912
10
0.474196000181
20
-11.1391060901
10
0.478506166863
20
-11.139055738
10
0.482816385827
20
-11.1390081349
10
0.487126657074
20
-11.1389632807
10
0.491436980605
20
-11.1389211757
10
0.495747356421
20
-11.1388818197
10
0.500057784522
20
-11.1388452128
10
0.504368264911
20
-11.1388113552
10
0.508678797587
20
-11.1387802468
10
0.512989382553
20
-11.1387518878
10
0.517300019809
20
-11.1387262781
10
0.521610709357
20
-11.1387034179
10
0.525921451198
20
-11.1386833072
10
0.530232245334
20
-11.1386659462
10
0.534543091765
20
-11.1386513348
10
0.538853990494
20
-11.1386394732
10
0.543164941523
20
-11.1386303615
10
0.547475944852
20
-11.1386239997
10
0.551787000485
20
-11.1386203879
0
LINE
8
Mirrors
10
0.553678176383
20
-11.2380569866
11
0.303744121791
21
-11.2439014954
0
TEXT
8
text
10
0.390260375439
20
-11.2034882815
40
0.025
1
SRM
0
LINE
8
Mirrors
10
0.168948681218
20
-4.15399503757
11
0.168792881417
21
-4.05454057846
0
LINE
8
Mirrors
10
0.418790865816
20
-4.05305810653
11
0.418948374461
21
-4.15360340201
0
LINE
8
Mirrors
10
0.418932709039
20
-4.14360341428
11
0.168933015796
21
-4.14399504984
0
LWPOLYLINE
8
Mirrors
70
0
90
60
10
0.418948374461
20
-4.15360340201
10
0.41463820426
20
-4.15371825016
10
0.410328028113
20
-4.1538293032
10
0.406017846021
20
-4.1539365614
10
0.401707657985
20
-4.15404002497
10
0.397397464004
20
-4.15413969414
10
0.39308726408
20
-4.15423556914
10
0.388777058213
20
-4.15432765016
10
0.384466846402
20
-4.15441593741
10
0.380156628649
20
-4.15450043108
10
0.375846404953
20
-4.15458113134
10
0.371536175314
20
-4.15465803836
10
0.367225939734
20
-4.15473115232
10
0.362915698212
20
-4.15480047336
10
0.358605450748
20
-4.15486600163
10
0.354295197344
20
-4.15492773726
10
0.349984937997
20
-4.15498568039
10
0.345674672711
20
-4.15503983114
10
0.341364401483
20
-4.1550901896
10
0.337054124314
20
-4.15513675589
10
0.332743841206
20
-4.1551795301
10
0.328433552156
20
-4.1552185123
10
0.324123257167
20
-4.15525370258
10
0.319812956238
20
-4.155285101
10
0.315502649368
20
-4.15531270762
10
0.311192336559
20
-4.15533652249
10
0.306882017809
20
-4.15535654564
10
0.30257169312
20
-4.1553727771
10
0.298261362491
20
-4.15538521691
10
0.293951025922
20
-4.15539386507
10
0.293951025922
20
-4.15539386507
10
0.289640683414
20
-4.15539872159
10
0.285330334965
20
-4.15539978645
10
0.281019980577
20
-4.15539705966
10
0.276709620249
20
-4.15539054118
10
0.272399253981
20
-4.15538023099
10
0.268088881773
20
-4.15536612905
10
0.263778503626
20
-4.1553482353
10
0.259468119538
20
-4.1553265497
10
0.255157729509
20
-4.15530107217
10
0.250847333541
20
-4.15527180264
10
0.246536931632
20
-4.15523874102
10
0.242226523782
20
-4.15520188723
10
0.237916109992
20
-4.15516124116
10
0.233605690261
20
-4.15511680271
10
0.229295264588
20
-4.15506857175
10
0.224984832975
20
-4.15501654815
10
0.220674395419
20
-4.15496073178
10
0.216363951922
20
-4.1549011225
10
0.212053502483
20
-4.15483772015
10
0.207743047102
20
-4.15477052457
10
0.203432585778
20
-4.15469953558
10
0.199122118511
20
-4.154624753
10
0.194811645301
20
-4.15454617665
10
0.190501166148
20
-4.15446380633
10
0.186190681051
20
-4.15437764183
10
0.18188019001
20
-4.15428768293
10
0.177569693024
20
-4.15419392941
10
0.173259190094
20
-4.15409638104
10
0.168948681218
20
-4.15399503757
0
LINE
8
Mirrors
10
0.168792881417
20
-4.05454057846
11
0.418790865816
21
-4.05305810653
0
TEXT
8
text
10
0.256370200728
20
-4.11629928114
40
0.025
1
SR2
0
LINE
8
Mirrors
10
-10.9076062721
20
0.26634200323
11
-11.0070440858
21
0.268168176665
0
LINE
8
Mirrors
10
-11.0035442687
20
0.518146058101
11
-10.9030158012
21
0.516299854831
0
LINE
8
Mirrors
10
-10.9130141153
20
0.516483473666
11
-10.9176045861
21
0.266525622065
0
LWPOLYLINE
8
Mirrors
70
0
90
60
10
-10.9030158012
20
0.516299854831
10
-10.9030395731
20
0.511989219755
10
-10.9030652882
20
0.507678620366
10
-10.9030929466
20
0.503368056665
10
-10.9031225482
20
0.499057528651
10
-10.9031540929
20
0.494747036323
10
-10.9031875808
20
0.49043657968
10
-10.9032230118
20
0.486126158722
10
-10.9032603858
20
0.48181577345
10
-10.9032997029
20
0.477505423861
10
-10.9033409631
20
0.473195109956
10
-10.9033841662
20
0.468884831734
10
-10.9034293123
20
0.464574589195
10
-10.9034764014
20
0.460264382338
10
-10.9035254334
20
0.455954211164
10
-10.9035764084
20
0.451644075671
10
-10.9036293263
20
0.44733397586
10
-10.903684187
20
0.44302391173
10
-10.9037409907
20
0.438713883281
10
-10.9037997372
20
0.434403890513
10
-10.9038604265
20
0.430093933425
10
-10.9039230587
20
0.425784012017
10
-10.9039876337
20
0.42147412629
10
-10.9040541516
20
0.417164276242
10
-10.9041226122
20
0.412854461874
10
-10.9041930157
20
0.408544683185
10
-10.904265362
20
0.404234940176
10
-10.904339651
20
0.399925232847
10
-10.9044158829
20
0.395615561197
10
-10.9044940576
20
0.391305925226
10
-10.9044940576
20
0.391305925226
10
-10.904574175
20
0.386996324935
10
-10.9046562352
20
0.382686760323
10
-10.9047402383
20
0.37837723139
10
-10.9048261841
20
0.374067738137
10
-10.9049140727
20
0.369758280563
10
-10.9050039042
20
0.365448858669
10
-10.9050956784
20
0.361139472455
10
-10.9051893955
20
0.35683012192
10
-10.9052850554
20
0.352520807066
10
-10.9053826582
20
0.348211527892
10
-10.9054822038
20
0.343902284398
10
-10.9055836922
20
0.339593076585
10
-10.9056871236
20
0.335283904453
10
-10.9057924978
20
0.330974768002
10
-10.9058998149
20
0.326665667232
10
-10.906009075
20
0.322356602144
10
-10.906120278
20
0.318047572739
10
-10.906233424
20
0.313738579016
10
-10.9063485129
20
0.309429620975
10
-10.9064655449
20
0.305120698618
10
-10.9065845199
20
0.300811811945
10
-10.906705438
20
0.296502960956
10
-10.9068282991
20
0.292194145651
10
-10.9069531033
20
0.287885366032
10
-10.9070798507
20
0.283576622098
10
-10.9072085412
20
0.27926791385
10
-10.9073391749
20
0.274959241289
10
-10.9074717519
20
0.270650604416
10
-10.9076062721
20
0.26634200323
0
LINE
8
Mirrors
10
-11.0070440858
20
0.268168176665
11
-11.0035442687
21
0.518146058101
0
TEXT
8
text
10
-10.992802607
20
0.379739023207
40
0.025
1
PRM
0
LINE
8
Mirrors
10
-19.5207355521
20
-0.109867565787
11
-19.6201870713
21
-0.110647983035
0
LINE
8
Mirrors
10
-19.6232396182
20
0.139335760204
11
-19.522697295
21
0.140124737224
0
LINE
8
Mirrors
10
-19.5326969871
20
0.140046267511
11
-19.5307352443
21
-0.109946035501
0
LWPOLYLINE
8
Mirrors
70
0
90
60
10
-19.522697295
20
0.140124737224
10
-19.5226790451
20
0.135814402897
10
-19.5226602488
20
0.131504072857
10
-19.522640906
20
0.127193747106
10
-19.5226210168
20
0.122883425642
10
-19.5226005811
20
0.118573108466
10
-19.5225795991
20
0.114262795579
10
-19.5225580706
20
0.109952486979
10
-19.5225359956
20
0.105642182668
10
-19.5225133743
20
0.101331882644
10
-19.5224902064
20
0.0970215869084
10
-19.5224664922
20
0.0927112954606
10
-19.5224422315
20
0.0884010083009
10
-19.5224174245
20
0.0840907254291
10
-19.5223920709
20
0.0797804468452
10
-19.522366171
20
0.0754701725493
10
-19.5223397246
20
0.0711599025413
10
-19.5223127318
20
0.0668496368213
10
-19.5222851925
20
0.0625393753892
10
-19.5222571069
20
0.0582291182451
10
-19.5222284748
20
0.0539188653889
10
-19.5221992962
20
0.0496086168206
10
-19.5221695713
20
0.0452983725403
10
-19.5221392999
20
0.0409881325479
10
-19.5221084821
20
0.0366778968434
10
-19.5220771179
20
0.0323676654268
10
-19.5220452072
20
0.0280574382982
10
-19.5220127501
20
0.0237472154575
10
-19.5219797466
20
0.0194369969047
10
-19.5219461967
20
0.0151267826399
10
-19.5219461967
20
0.0151267826399
10
-19.5219121003
20
0.0108165726629
10
-19.5218774575
20
0.00650636697394
10
-19.5218422683
20
0.00219616557286
10
-19.5218065327
20
-0.00211403154029
10
-19.5217702506
20
-0.00642422436551
10
-19.5217334221
20
-0.0107344129028
10
-19.5216960472
20
-0.0150445971522
10
-19.5216581258
20
-0.0193547771136
10
-19.521619658
20
-0.0236649527871
10
-19.5215806438
20
-0.0279751241727
10
-19.5215410832
20
-0.0322852912703
10
-19.5215009761
20
-0.03659545408
10
-19.5214603226
20
-0.0409056126018
10
-19.5214191227
20
-0.0452157668356
10
-19.5213773764
20
-0.0495259167815
10
-19.5213350836
20
-0.0538360624394
10
-19.5212922444
20
-0.0581462038094
10
-19.5212488587
20
-0.0624563408914
10
-19.5212049267
20
-0.0667664736855
10
-19.5211604482
20
-0.0710766021916
10
-19.5211154232
20
-0.0753867264097
10
-19.5210698519
20
-0.0796968463398
10
-19.5210237341
20
-0.084006961982
10
-19.5209770698
20
-0.0883170733362
10
-19.5209298592
20
-0.0926271804025
10
-19.5208821021
20
-0.0969372831807
10
-19.5208337985
20
-0.101247381671
10
-19.5207849486
20
-0.105557475873
10
-19.5207355521
20
-0.109867565787
0
LINE
8
Mirrors
10
-19.6201870713
20
-0.110647983035
11
-19.6232396182
21
0.139335760204
0
TEXT
8
text
10
-19.6092148842
20
0.00223623715156
40
0.025
1
PR3
0
LINE
8
Mirrors
10
-4.17824519572
20
0.392811552076
11
-4.07879065917
21
0.392717371012
0
LINE
8
Mirrors
10
-4.07793656586
20
0.142716450111
11
-4.17848193963
21
0.142811664172
0
LINE
8
Mirrors
10
-4.16848194411
20
0.142802194415
11
-4.16824520021
21
0.39280208232
0
LWPOLYLINE
8
Mirrors
70
0
90
60
10
-4.17848193963
20
0.142811664172
10
-4.17859824645
20
0.147122121072
10
-4.17871032598
20
0.151432573969
10
-4.17881817856
20
0.155743022863
10
-4.17892180452
20
0.160053467754
10
-4.17902120415
20
0.164363908644
10
-4.17911637777
20
0.168674345531
10
-4.17920732566
20
0.172984778417
10
-4.17929404808
20
0.177295207301
10
-4.17937654531
20
0.181605632184
10
-4.17945481759
20
0.185916053066
10
-4.17952886516
20
0.190226469948
10
-4.17959868825
20
0.194536882829
10
-4.17966428706
20
0.19884729171
10
-4.1797256618
20
0.203157696591
10
-4.17978281265
20
0.207468097471
10
-4.1798357398
20
0.211778494352
10
-4.1798844434
20
0.216088887234
10
-4.17992892362
20
0.220399276116
10
-4.17996918058
20
0.224709660998
10
-4.18000521442
20
0.229020041882
10
-4.18003702525
20
0.233330418766
10
-4.18006461318
20
0.237640791651
10
-4.18008797829
20
0.241951160538
10
-4.18010712067
20
0.246261525426
10
-4.18012204038
20
0.250571886314
10
-4.18013273748
20
0.254882243205
10
-4.18013921201
20
0.259192596096
10
-4.18014146399
20
0.263502944989
10
-4.18013949346
20
0.267813289883
10
-4.18013949346
20
0.267813289883
10
-4.18013330041
20
0.272123630779
10
-4.18012288484
20
0.276433967676
10
-4.18010824673
20
0.280744300574
10
-4.18008938605
20
0.285054629474
10
-4.18006630275
20
0.289364954375
10
-4.18003899679
20
0.293675275277
10
-4.1800074681
20
0.29798559218
10
-4.17997171659
20
0.302295905085
10
-4.17993174217
20
0.30660621399
10
-4.17988754475
20
0.310916518896
10
-4.1798391242
20
0.315226819804
10
-4.17978648041
20
0.319537116711
10
-4.17972961322
20
0.32384740962
10
-4.17966852249
20
0.328157698529
10
-4.17960320805
20
0.332467983438
10
-4.17953366973
20
0.336778264347
10
-4.17945990734
20
0.341088541256
10
-4.17938192067
20
0.345398814165
10
-4.17929970952
20
0.349709083073
10
-4.17921327365
20
0.354019347981
10
-4.17912261284
20
0.358329608887
10
-4.17902772683
20
0.362639865793
10
-4.17892861536
20
0.366950118697
10
-4.17882527816
20
0.371260367599
10
-4.17871771494
20
0.3755706125
10
-4.17860592541
20
0.379880853398
10
-4.17848990924
20
0.384191090294
10
-4.17836966612
20
0.388501323187
10
-4.17824519572
20
0.392811552076
0
LINE
8
Mirrors
10
-4.07879065917
20
0.392717371012
11
-4.07793656586
21
0.142716450111
0
TEXT
8
text
10
-4.16586359009
20
0.255264259343
40
0.025
1
PR2
0
LINE
8
Mirrors
10
53.2140556581
20
-0.132577837311
11
53.1139642037
21
-0.132577837311
0
LINE
8
Mirrors
10
53.1141471126
20
0.117422162689
11
53.2140556581
21
0.117422162689
0
LINE
8
Mirrors
10
53.2040556581
20
0.117422162689
11
53.2040556581
21
-0.132577837311
0
LWPOLYLINE
8
Mirrors
70
0
90
60
10
53.2140556581
20
0.117422162689
10
53.2140553795
20
0.113111817861
10
53.2140551105
20
0.108801473033
10
53.2140548514
20
0.104491128206
10
53.2140546021
20
0.100180783378
10
53.2140543625
20
0.0958704385507
10
53.2140541327
20
0.0915600937231
10
53.2140539127
20
0.0872497488955
10
53.2140537024
20
0.0829394040679
10
53.214053502
20
0.0786290592404
10
53.2140533113
20
0.0743187144128
10
53.2140531304
20
0.0700083695852
10
53.2140529593
20
0.0656980247576
10
53.2140527979
20
0.06138767993
10
53.2140526464
20
0.0570773351024
10
53.2140525046
20
0.0527669902748
10
53.2140523726
20
0.0484566454473
10
53.2140522503
20
0.0441463006197
10
53.2140521379
20
0.0398359557921
10
53.2140520352
20
0.0355256109645
10
53.2140519423
20
0.0312152661369
10
53.2140518592
20
0.0269049213093
10
53.2140517859
20
0.0225945764817
10
53.2140517223
20
0.0182842316542
10
53.2140516685
20
0.0139738868266
10
53.2140516245
20
0.00966354199898
10
53.2140515903
20
0.00535319717139
10
53.2140515659
20
0.00104285234381
10
53.2140515512
20
-0.00326749248378
10
53.2140515463
20
-0.00757783731137
10
53.2140515463
20
-0.00757783731137
10
53.2140515512
20
-0.011888182139
10
53.2140515659
20
-0.0161985269665
10
53.2140515903
20
-0.0205088717941
10
53.2140516245
20
-0.0248192166217
10
53.2140516685
20
-0.0291295614493
10
53.2140517223
20
-0.0334399062769
10
53.2140517859
20
-0.0377502511045
10
53.2140518592
20
-0.0420605959321
10
53.2140519423
20
-0.0463709407596
10
53.2140520352
20
-0.0506812855872
10
53.2140521379
20
-0.0549916304148
10
53.2140522503
20
-0.0593019752424
10
53.2140523726
20
-0.06361232007
10
53.2140525046
20
-0.0679226648976
10
53.2140526464
20
-0.0722330097252
10
53.2140527979
20
-0.0765433545527
10
53.2140529593
20
-0.0808536993803
10
53.2140531304
20
-0.0851640442079
10
53.2140533113
20
-0.0894743890355
10
53.214053502
20
-0.0937847338631
10
53.2140537024
20
-0.0980950786907
10
53.2140539127
20
-0.102405423518
10
53.2140541327
20
-0.106715768346
10
53.2140543625
20
-0.111026113173
10
53.2140546021
20
-0.115336458001
10
53.2140548514
20
-0.119646802829
10
53.2140551105
20
-0.123957147656
10
53.2140553795
20
-0.128267492484
10
53.2140556581
20
-0.132577837311
0
LINE
8
Mirrors
10
53.1139642037
20
-0.132577837311
11
53.1141471126
21
0.117422162689
0
TEXT
8
text
10
53.1140556581
20
-0.0200778373114
40
0.025
1
ITMX
0
LINE
8
Mirrors
10
0.108606551748
20
49.9289185485
11
0.108606551748
21
49.8288270941
0
LINE
8
Mirrors
10
-0.141393448252
20
49.829010003
11
-0.141393448252
21
49.9289185485
0
LINE
8
Mirrors
10
-0.141393448252
20
49.9189185485
11
0.108606551748
21
49.9189185485
0
LWPOLYLINE
8
Mirrors
70
0
90
60
10
-0.141393448252
20
49.9289185485
10
-0.137083103425
20
49.9289182698
10
-0.132772758597
20
49.9289180009
10
-0.12846241377
20
49.9289177418
10
-0.124152068942
20
49.9289174924
10
-0.119841724114
20
49.9289172529
10
-0.115531379287
20
49.9289170231
10
-0.111221034459
20
49.9289168031
10
-0.106910689632
20
49.9289165928
10
-0.102600344804
20
49.9289163924
10
-0.0982899999765
20
49.9289162017
10
-0.0939796551489
20
49.9289160208
10
-0.0896693103213
20
49.9289158497
10
-0.0853589654937
20
49.9289156883
10
-0.0810486206662
20
49.9289155368
10
-0.0767382758386
20
49.928915395
10
-0.072427931011
20
49.928915263
10
-0.0681175861834
20
49.9289151407
10
-0.0638072413558
20
49.9289150283
10
-0.0594968965282
20
49.9289149256
10
-0.0551865517006
20
49.9289148327
10
-0.0508762068731
20
49.9289147496
10
-0.0465658620455
20
49.9289146763
10
-0.0422555172179
20
49.9289146127
10
-0.0379451723903
20
49.9289145589
10
-0.0336348275627
20
49.9289145149
10
-0.0293244827351
20
49.9289144807
10
-0.0250141379075
20
49.9289144562
10
-0.0207037930799
20
49.9289144416
10
-0.0163934482524
20
49.9289144367
10
-0.0163934482524
20
49.9289144367
10
-0.0120831034248
20
49.9289144416
10
-0.00777275859719
20
49.9289144562
10
-0.0034624137696
20
49.9289144807
10
0.000847931057984
20
49.9289145149
10
0.00515827588557
20
49.9289145589
10
0.00946862071316
20
49.9289146127
10
0.0137789655407
20
49.9289146763
10
0.0180893103683
20
49.9289147496
10
0.0223996551959
20
49.9289148327
10
0.0267100000235
20
49.9289149256
10
0.0310203448511
20
49.9289150283
10
0.0353306896787
20
49.9289151407
10
0.0396410345063
20
49.928915263
10
0.0439513793338
20
49.928915395
10
0.0482617241614
20
49.9289155368
10
0.052572068989
20
49.9289156883
10
0.0568824138166
20
49.9289158497
10
0.0611927586442
20
49.9289160208
10
0.0655031034718
20
49.9289162017
10
0.0698134482994
20
49.9289163924
10
0.0741237931269
20
49.9289165928
10
0.0784341379545
20
49.9289168031
10
0.0827444827821
20
49.9289170231
10
0.0870548276097
20
49.9289172529
10
0.0913651724373
20
49.9289174924
10
0.0956755172649
20
49.9289177418
10
0.0999858620925
20
49.9289180009
10
0.10429620692
20
49.9289182698
10
0.108606551748
20
49.9289185485
0
LINE
8
Mirrors
10
0.108606551748
20
49.8288270941
11
-0.141393448252
21
49.829010003
0
TEXT
8
text
10
-0.0663934482524
20
49.8664185485
40
0.025
1
ITMY
0
ENDSEC
0
EOF
