  0
SECTION
  2
HEADER
  9
$ACADVER
  1
AC1024
  9
$ACADMAINTVER
 70
     6
  9
$DWGCODEPAGE
  3
ANSI_1252
  9
$INSBASE
 10
0.0
 20
0.0
 30
0.0
  9
$EXTMIN
 10
-29792.5061048
 20
-20226.4355913
 30
0.0
  9
$EXTMAX
 10
3026657.20596
 20
3023372.06826
 30
0.0
  9
$LIMMIN
 10
-29792.5061048
 20
-20226.4355913
  9
$LIMMAX
 10
3026657.20596
 20
3023372.06826
  9
$ORTHOMODE
 70
     0
  9
$REGENMODE
 70
     1
  9
$FILLMODE
 70
     1
  9
$QTEXTMODE
 70
     0
  9
$MIRRTEXT
 70
     1
  9
$LTSCALE
 40
1.0
  9
$ATTMODE
 70
     1
  9
$TEXTSIZE
 40
2.5
  9
$TRACEWID
 40
1.0
  9
$TEXTSTYLE
  7
Standard
  9
$CLAYER
  8
Outline
  9
$CELTYPE
  6
ByLayer
  9
$CECOLOR
 62
   256
  9
$CELTSCALE
 40
1.0
  9
$DISPSILH
 70
     0
  9
$DIMSCALE
 40
1.0
  9
$DIMASZ
 40
2.5
  9
$DIMEXO
 40
0.625
  9
$DIMDLI
 40
3.75
  9
$DIMRND
 40
0.0
  9
$DIMDLE
 40
0.0
  9
$DIMEXE
 40
1.25
  9
$DIMTP
 40
0.0
  9
$DIMTM
 40
0.0
  9
$DIMTXT
 40
2.5
  9
$DIMCEN
 40
2.5
  9
$DIMTSZ
 40
0.0
  9
$DIMTOL
 70
     0
  9
$DIMLIM
 70
     0
  9
$DIMTIH
 70
     0
  9
$DIMTOH
 70
     0
  9
$DIMSE1
 70
     0
  9
$DIMSE2
 70
     0
  9
$DIMTAD
 70
     1
  9
$DIMZIN
 70
     8
  9
$DIMBLK
  1

  9
$DIMASO
 70
     1
  9
$DIMSHO
 70
     1
  9
$DIMPOST
  1

  9
$DIMAPOST
  1

  9
$DIMALT
 70
     0
  9
$DIMALTD
 70
     3
  9
$DIMALTF
 40
0.03937007874016
  9
$DIMLFAC
 40
1.0
  9
$DIMTOFL
 70
     1
  9
$DIMTVP
 40
0.0
  9
$DIMTIX
 70
     0
  9
$DIMSOXD
 70
     0
  9
$DIMSAH
 70
     0
  9
$DIMBLK1
  1

  9
$DIMBLK2
  1

  9
$DIMSTYLE
  2
ISO-25
  9
$DIMCLRD
 70
     0
  9
$DIMCLRE
 70
     0
  9
$DIMCLRT
 70
     0
  9
$DIMTFAC
 40
1.0
  9
$DIMGAP
 40
0.625
  9
$DIMJUST
 70
     0
  9
$DIMSD1
 70
     0
  9
$DIMSD2
 70
     0
  9
$DIMTOLJ
 70
     0
  9
$DIMTZIN
 70
     8
  9
$DIMALTZ
 70
     0
  9
$DIMALTTZ
 70
     0
  9
$DIMUPT
 70
     0
  9
$DIMDEC
 70
     2
  9
$DIMTDEC
 70
     2
  9
$DIMALTU
 70
     2
  9
$DIMALTTD
 70
     3
  9
$DIMTXSTY
  7
Standard
  9
$DIMAUNIT
 70
     0
  9
$DIMADEC
 70
     0
  9
$DIMALTRND
 40
0.0
  9
$DIMAZIN
 70
     0
  9
$DIMDSEP
 70
    44
  9
$DIMATFIT
 70
     3
  9
$DIMFRAC
 70
     0
  9
$DIMLDRBLK
  1

  9
$DIMLUNIT
 70
     2
  9
$DIMLWD
 70
    -2
  9
$DIMLWE
 70
    -2
  9
$DIMTMOVE
 70
     0
  9
$DIMFXL
 40
1.0
  9
$DIMFXLON
 70
     0
  9
$DIMJOGANG
 40
0.7853981633974483
  9
$DIMTFILL
 70
     0
  9
$DIMTFILLCLR
 70
     0
  9
$DIMARCSYM
 70
     0
  9
$DIMLTYPE
  6

  9
$DIMLTEX1
  6

  9
$DIMLTEX2
  6

  9
$DIMTXTDIRECTION
 70
     0
  9
$LUNITS
 70
     2
  9
$LUPREC
 70
     4
  9
$SKETCHINC
 40
1.0
  9
$FILLETRAD
 40
10.0
  9
$AUNITS
 70
     0
  9
$AUPREC
 70
     0
  9
$MENU
  1
.
  9
$ELEVATION
 40
0.0
  9
$PELEVATION
 40
0.0
  9
$THICKNESS
 40
0.0
  9
$LIMCHECK
 70
     0
  9
$CHAMFERA
 40
10.0
  9
$CHAMFERB
 40
10.0
  9
$CHAMFERC
 40
20.0
  9
$CHAMFERD
 40
0.0
  9
$SKPOLY
 70
     0
  9
$TDCREATE
 40
2456231.748506945
  9
$TDUCREATE
 40
2456231.373506945
  9
$TDUPDATE
 40
2456231.748506945
  9
$TDUUPDATE
 40
2456231.373506945
  9
$TDINDWG
 40
0.0000000116
  9
$TDUSRTIMER
 40
0.0000000116
  9
$USRTIMER
 70
     1
  9
$ANGBASE
 50
0.0
  9
$ANGDIR
 70
     0
  9
$PDMODE
 70
     0
  9
$PDSIZE
 40
0.0
  9
$PLINEWID
 40
0.0
  9
$SPLFRAME
 70
     0
  9
$SPLINETYPE
 70
     6
  9
$SPLINESEGS
 70
     8
  9
$HANDSEED
  5
6F
  9
$SURFTAB1
 70
     6
  9
$SURFTAB2
 70
     6
  9
$SURFTYPE
 70
     6
  9
$SURFU
 70
     6
  9
$SURFV
 70
     6
  9
$UCSBASE
  2

  9
$UCSNAME
  2

  9
$UCSORG
 10
0.0
 20
0.0
 30
0.0
  9
$UCSXDIR
 10
1.0
 20
0.0
 30
0.0
  9
$UCSYDIR
 10
0.0
 20
1.0
 30
0.0
  9
$UCSORTHOREF
  2

  9
$UCSORTHOVIEW
 70
     0
  9
$UCSORGTOP
 10
0.0
 20
0.0
 30
0.0
  9
$UCSORGBOTTOM
 10
0.0
 20
0.0
 30
0.0
  9
$UCSORGLEFT
 10
0.0
 20
0.0
 30
0.0
  9
$UCSORGRIGHT
 10
0.0
 20
0.0
 30
0.0
  9
$UCSORGFRONT
 10
0.0
 20
0.0
 30
0.0
  9
$UCSORGBACK
 10
0.0
 20
0.0
 30
0.0
  9
$PUCSBASE
  2

  9
$PUCSNAME
  2

  9
$PUCSORG
 10
0.0
 20
0.0
 30
0.0
  9
$PUCSXDIR
 10
1.0
 20
0.0
 30
0.0
  9
$PUCSYDIR
 10
0.0
 20
1.0
 30
0.0
  9
$PUCSORTHOREF
  2

  9
$PUCSORTHOVIEW
 70
     0
  9
$PUCSORGTOP
 10
0.0
 20
0.0
 30
0.0
  9
$PUCSORGBOTTOM
 10
0.0
 20
0.0
 30
0.0
  9
$PUCSORGLEFT
 10
0.0
 20
0.0
 30
0.0
  9
$PUCSORGRIGHT
 10
0.0
 20
0.0
 30
0.0
  9
$PUCSORGFRONT
 10
0.0
 20
0.0
 30
0.0
  9
$PUCSORGBACK
 10
0.0
 20
0.0
 30
0.0
  9
$USERI1
 70
     0
  9
$USERI2
 70
     0
  9
$USERI3
 70
     0
  9
$USERI4
 70
     0
  9
$USERI5
 70
     0
  9
$USERR1
 40
0.0
  9
$USERR2
 40
0.0
  9
$USERR3
 40
0.0
  9
$USERR4
 40
0.0
  9
$USERR5
 40
0.0
  9
$WORLDVIEW
 70
     1
  9
$SHADEDGE
 70
     3
  9
$SHADEDIF
 70
    70
  9
$TILEMODE
 70
     1
  9
$MAXACTVP
 70
    64
  9
$PINSBASE
 10
0.0
 20
0.0
 30
0.0
  9
$PLIMCHECK
 70
     0
  9
$PEXTMIN
 10
1.000000000000000E+20
 20
1.000000000000000E+20
 30
1.000000000000000E+20
  9
$PEXTMAX
 10
-1.000000000000000E+20
 20
-1.000000000000000E+20
 30
-1.000000000000000E+20
  9
$PLIMMIN
 10
0.0
 20
0.0
  9
$PLIMMAX
 10
420.0
 20
297.0
  9
$UNITMODE
 70
     0
  9
$VISRETAIN
 70
     1
  9
$PLINEGEN
 70
     0
  9
$PSLTSCALE
 70
     1
  9
$TREEDEPTH
 70
  3020
  9
$CMLSTYLE
  2
Standard
  9
$CMLJUST
 70
     0
  9
$CMLSCALE
 40
20.0
  9
$PROXYGRAPHICS
 70
     1
  9
$MEASUREMENT
 70
     1
  9
$CELWEIGHT
370
    -1
  9
$ENDCAPS
280
     0
  9
$JOINSTYLE
280
     0
  9
$LWDISPLAY
290
     0
  9
$INSUNITS
 70
     4
  9
$HYPERLINKBASE
  1

  9
$STYLESHEET
  1

  9
$XEDIT
290
     1
  9
$CEPSNTYPE
380
     0
  9
$PSTYLEMODE
290
     1
  9
$FINGERPRINTGUID
  2
{92905EEA-4798-D3AF-0738-BBE039DCC74E}
  9
$VERSIONGUID
  2
{FAEB1C32-E019-11D5-929B-00C0DF256EC4}
  9
$EXTNAMES
290
     1
  9
$PSVPSCALE
 40
0.0
  9
$OLESTARTUP
290
     0
  9
$SORTENTS
280
   127
  9
$INDEXCTL
280
     0
  9
$HIDETEXT
280
     1
  9
$XCLIPFRAME
280
     2
  9
$HALOGAP
280
     0
  9
$OBSCOLOR
 70
   257
  9
$OBSLTYPE
280
     0
  9
$INTERSECTIONDISPLAY
280
     0
  9
$INTERSECTIONCOLOR
 70
   257
  9
$DIMASSOC
280
     2
  9
$PROJECTNAME
  1

  9
$CAMERADISPLAY
290
     0
  9
$LENSLENGTH
 40
50.0
  9
$CAMERAHEIGHT
 40
0.0
  9
$STEPSPERSEC
 40
2.0
  9
$STEPSIZE
 40
6.0
  9
$3DDWFPREC
 40
2.0
  9
$PSOLWIDTH
 40
5.0
  9
$PSOLHEIGHT
 40
80.0
  9
$LOFTANG1
 40
1.570796326794897
  9
$LOFTANG2
 40
1.570796326794897
  9
$LOFTMAG1
 40
0.0
  9
$LOFTMAG2
 40
0.0
  9
$LOFTPARAM
 70
     7
  9
$LOFTNORMALS
280
     1
  9
$LATITUDE
 40
37.795
  9
$LONGITUDE
 40
-122.394
  9
$NORTHDIRECTION
 40
0.0
  9
$TIMEZONE
 70
 -8000
  9
$LIGHTGLYPHDISPLAY
280
     1
  9
$TILEMODELIGHTSYNCH
280
     1
  9
$CMATERIAL
347
3C
  9
$SOLIDHIST
280
     1
  9
$SHOWHIST
280
     1
  9
$DWFFRAME
280
     2
  9
$DGNFRAME
280
     2
  9
$REALWORLDSCALE
290
     1
  9
$INTERFERECOLOR
 62
   256
  9
$CSHADOW
280
     0
  9
$SHADOWPLANELOCATION
 40
0.0
  0
ENDSEC
  0
SECTION
  2
CLASSES
  0
CLASS
  1
ACDBDICTIONARYWDFLT
  2
AcDbDictionaryWithDefault
  3
ObjectDBX Classes
 90
        0
 91
        4
280
     0
281
     0
  0
CLASS
  1
VISUALSTYLE
  2
AcDbVisualStyle
  3
ObjectDBX Classes
 90
     4095
 91
        4
280
     0
281
     0
  0
CLASS
  1
MATERIAL
  2
AcDbMaterial
  3
ObjectDBX Classes
 90
     1153
 91
        4
280
     0
281
     0
  0
CLASS
  1
SUN
  2
AcDbSun
  3
SCENEOE
 90
     1024
 91
        4
280
     0
281
     0
  0
ENDSEC
  0
SECTION
  2
TABLES
  0
TABLE
  2
VPORT
  5
8
330
0
100
AcDbSymbolTable
 70
     1
  0
VPORT
  5
29
330
8
100
AcDbSymbolTableRecord
100
AcDbViewportTableRecord
  2
*Active
 70
     0
 10
0.0
 20
0.0
 11
1.0
 21
1.0
 12
360.5069142256372
 22
77.37740091485402
 13
0.0
 23
0.0
 14
10.0
 24
10.0
 15
10.0
 25
10.0
 16
0.0
 26
0.0
 36
1.0
 17
0.0
 27
0.0
 37
0.0
 40
643.00113180099
 41
2.116173120728929
 42
50.0
 43
0.0
 44
0.0
 50
0.0
 51
0.0
 71
     0
 72
   100
 73
     1
 74
     3
 75
     0
 76
     0
 77
     0
 78
     0
281
     0
 65
     1
110
0.0
120
0.0
130
0.0
111
1.0
121
0.0
131
0.0
112
0.0
122
1.0
132
0.0
 79
     0
146
0.0
 60
     3
 61
     5
292
     1
282
     1
141
0.0
142
0.0
 63
   250
361
3F
  0
ENDTAB
  0
TABLE
  2
LTYPE
  5
5
330
0
100
AcDbSymbolTable
 70
     7
  0
LTYPE
  5
14
330
5
100
AcDbSymbolTableRecord
100
AcDbLinetypeTableRecord
  2
ByBlock
 70
     0
  3

 72
    65
 73
     0
 40
0.0
  0
LTYPE
  5
15
330
5
100
AcDbSymbolTableRecord
100
AcDbLinetypeTableRecord
  2
ByLayer
 70
     0
  3

 72
    65
 73
     0
 40
0.0
  0
LTYPE
  5
16
330
5
100
AcDbSymbolTableRecord
100
AcDbLinetypeTableRecord
  2
Continuous
 70
     0
  3
Solid line
 72
    65
 73
     0
 40
0.0
  0
LTYPE
  5
40
330
5
100
AcDbSymbolTableRecord
100
AcDbLinetypeTableRecord
  2
DOT
 70
     0
  3
Dot . . . . . . . . . . . . . . . . . . . . . . . .
 72
    65
 73
     2
 40
2.032
 49
1.016
 74
     0
 49
-1.016
 74
     0
  0
LTYPE
  5
41
330
5
100
AcDbSymbolTableRecord
100
AcDbLinetypeTableRecord
  2
CENTER
 70
     0
  3
Center ____ _ ____ _ ____ _ ____ _ ____ _ ____
 72
    65
 73
     4
 40
13.208
 49
8.128
 74
     0
 49
-1.524
 74
     0
 49
2.032
 74
     0
 49
-1.524
 74
     0
  0
LTYPE
  5
42
330
5
100
AcDbSymbolTableRecord
100
AcDbLinetypeTableRecord
  2
HIDDEN2
 70
     0
  3
Hidden (.5x) _ _ _ _ _ _ _ _ _ _ _ _ _ _ _ _ _
 72
    65
 73
     2
 40
4.762499999999999
 49
3.175
 74
     0
 49
-1.5875
 74
     0
  0
LTYPE
  5
43
330
5
100
AcDbSymbolTableRecord
100
AcDbLinetypeTableRecord
  2
DASHED
 70
     0
  3
Dashed __ __ __ __ __ __ __ __ __ __ __ __ __ _
 72
    65
 73
     2
 40
9.652
 49
8.128
 74
     0
 49
-1.524
 74
     0
  0
LTYPE
  5
44
330
5
100
AcDbSymbolTableRecord
100
AcDbLinetypeTableRecord
  2
PHANTOM2
 70
     0
  3
Phantom (.5x) ___ _ _ ___ _ _ ___ _ _ ___ _ _
 72
    65
 73
     6
 40
14.732
 49
8.128
 74
     0
 49
-1.524
 74
     0
 49
1.016
 74
     0
 49
-1.524
 74
     0
 49
1.016
 74
     0
 49
-1.524
 74
     0
  0
LTYPE
  5
45
330
5
100
AcDbSymbolTableRecord
100
AcDbLinetypeTableRecord
  2
DASHDOT
 70
     0
  3
Dash dot __ . __ . __ . __ . __ . __ . __ . __
 72
    65
 73
     4
 40
11.176
 49
8.128
 74
     0
 49
-1.524
 74
     0
 49
0.0
 74
     0
 49
-1.524
 74
     0
  0
ENDTAB
  0
TABLE
  2
LAYER
  5
2
330
0
100
AcDbSymbolTable
 70
     7
  0
LAYER
  5
10
330
2
100
AcDbSymbolTableRecord
100
AcDbLayerTableRecord
  2
0
 70
     0
 62
     5
  6
Continuous
370
    -3
390
F
347
3E
  0
LAYER
  5
46
330
2
100
AcDbSymbolTableRecord
100
AcDbLayerTableRecord
  2
Default
 70
     0
 62
     255
  6
Continuous
370
    -3
390
F
347
3E
  0
LAYER
  5
78
330
2
100
AcDbSymbolTableRecord
100
AcDbLayerTableRecord
  2
Mirrors
 70
0
 62
255
  6
Continuous
370
    -3
390
F
347
3E
  0
LAYER
  5
a6
330
2
100
AcDbSymbolTableRecord
100
AcDbLayerTableRecord
  2
text
 70
0
 62
255
  6
Continuous
370
    -3
390
F
347
3E
  0
LAYER
  5
d8
330
2
100
AcDbSymbolTableRecord
100
AcDbLayerTableRecord
  2
main_beam
 70
0
 62
1
  6
Continuous
370
    -3
390
F
347
3E
  0
LAYER
  5
101
330
2
100
AcDbSymbolTableRecord
100
AcDbLayerTableRecord
  2
aux_beam
 70
0
 62
3
  6
Continuous
370
    -3
390
F
347
3E
  0
LAYER
  5
102
330
2
100
AcDbSymbolTableRecord
100
AcDbLayerTableRecord
  2
pox_beam
 70
0
 62
5
  6
Continuous
370
    -3
390
F
347
3E
  0
LAYER
  5
103
330
2
100
AcDbSymbolTableRecord
100
AcDbLayerTableRecord
  2
poy_beam
 70
0
 62
5
  6
Continuous
370
    -3
390
F
347
3E
  0
LAYER
  5
104
330
2
100
AcDbSymbolTableRecord
100
AcDbLayerTableRecord
  2
main_beam_width
 70
0
 62
6
  6
Continuous
370
    -3
390
F
347
3E
  0
LAYER
  5
155
330
2
100
AcDbSymbolTableRecord
100
AcDbLayerTableRecord
  2
Vacuum
 70
0
 62
255
  6
Continuous
370
    -3
390
F
347
3E
  0
LAYER
  5
179
330
2
100
AcDbSymbolTableRecord
100
AcDbLayerTableRecord
  2
poy_beam_width
 70
0
 62
4
  6
Continuous
370
    -3
390
F
347
3E
  0
LAYER
  5
17a
330
2
100
AcDbSymbolTableRecord
100
AcDbLayerTableRecord
  2
pox_beam_width
 70
0
 62
4
  6
Continuous
370
    -3
390
F
347
3E
  0
LAYER
  5
17b
330
2
100
AcDbSymbolTableRecord
100
AcDbLayerTableRecord
  2
aux_beam_width
 70
0
 62
4
  6
Continuous
370
    -3
390
F
347
3E
  0
ENDTAB
  0
TABLE
  2
STYLE
  5
3
330
0
100
AcDbSymbolTable
 70
    33
  0
STYLE
  5
11
330
3
100
AcDbSymbolTableRecord
100
AcDbTextStyleTableRecord
  2
Standard
 70
     0
 40
0.0
 41
1.0
 50
0.0
 71
     0
 42
2.5
  3
txt
  4

  0
ENDTAB
  0
TABLE
  2
VIEW
  5
6
330
0
100
AcDbSymbolTable
 70
     0
  0
ENDTAB
  0
TABLE
  2
UCS
  5
7
330
0
100
AcDbSymbolTable
 70
     0
  0
ENDTAB
  0
TABLE
  2
APPID
  5
9
330
0
100
AcDbSymbolTable
 70
     1
  0
APPID
  5
12
330
9
100
AcDbSymbolTableRecord
100
AcDbRegAppTableRecord
  2
ACAD
 70
     0
  0
ENDTAB
  0
TABLE
  2
DIMSTYLE
  5
A
330
0
100
AcDbSymbolTable
 70
     1
100
AcDbDimStyleTable
  0
DIMSTYLE
105
27
330
A
100
AcDbSymbolTableRecord
100
AcDbDimStyleTableRecord
  2
ISO-25
 70
     0
 41
2.5
 42
0.625
 43
3.75
 44
1.25
 73
     0
 74
     0
 77
     1
 78
     8
140
2.5
141
2.5
143
0.03937007874016
147
0.625
171
     3
172
     1
178
     0
271
     2
272
     2
274
     3
278
    44
283
     0
284
     8
340
11
  0
ENDTAB
  0
TABLE
  2
BLOCK_RECORD
  5
1
330
0
100
AcDbSymbolTable
 70
     1
  0
BLOCK_RECORD
  5
1F
330
1
100
AcDbSymbolTableRecord
100
AcDbBlockTableRecord
  2
*Model_Space
340
22
 70
     0
280
     1
281
     0
  0
BLOCK_RECORD
  5
1B
330
1
100
AcDbSymbolTableRecord
100
AcDbBlockTableRecord
  2
*Paper_Space
340
1E
 70
     0
280
     1
281
     0
  0
BLOCK_RECORD
  5
23
330
1
100
AcDbSymbolTableRecord
100
AcDbBlockTableRecord
  2
*Paper_Space0
340
26
 70
     0
280
     1
281
     0
  0
ENDTAB
    0
ENDSEC
  0
SECTION
  2
BLOCKS
  0
BLOCK
  5
20
330
1F
100
AcDbEntity
  8
0
100
AcDbBlockBegin
  2
*Model_Space
 70
     0
 10
0.0
 20
0.0
 30
0.0
  3
*Model_Space
  1

  0
ENDBLK
  5
21
330
1F
100
AcDbEntity
  8
0
100
AcDbBlockEnd
  0
BLOCK
  5
1C
330
1B
100
AcDbEntity
 67
     1
  8
0
100
AcDbBlockBegin
  2
*Paper_Space
 70
     0
 10
0.0
 20
0.0
 30
0.0
  3
*Paper_Space
  1

  0
ENDBLK
  5
1D
330
1B
100
AcDbEntity
 67
     1
  8
0
100
AcDbBlockEnd
  0
BLOCK
  5
24
330
23
100
AcDbEntity
  8
0
100
AcDbBlockBegin
  2
*Paper_Space0
 70
     0
 10
0.0
 20
0.0
 30
0.0
  3
*Paper_Space0
  1

  0
ENDBLK
  5
25
330
23
100
AcDbEntity
  8
0
100
AcDbBlockEnd
  0
ENDSEC
  0
SECTION
  2
ENTITIES
  0
LINE
  5
79
330
1F
100
AcDbEntity
  8
Mirrors
100
AcDbLine
 10
172.235133536
 20
-15694.9556356
 30
0.0
  11
171.226432245
 21
-15790.5852197
 31
0.0
  0
LINE
  5
7a
330
1F
100
AcDbEntity
  8
Mirrors
100
AcDbLine
 10
-78.8517423525
 20
-15796.6780719
 30
0.0
  11
-77.7509600738
 21
-15692.3187811
 31
0.0
  0
LINE
  5
7b
330
1F
100
AcDbEntity
  8
Mirrors
100
AcDbLine
 10
-77.8564342524
 20
-15702.3182249
 30
0.0
  11
172.129659358
 21
-15704.9550793
 31
0.0
  0
LWPOLYLINE
  5
7c
330
1F
100
AcDbEntity
  8
Mirrors
100
AcDbPolyline
 90
60
 70
0
43
0.0
 10
-77.7509600738
 20
-15692.3187811
 10
-73.4410791589
 20
-15692.3854943
 10
-69.131190379
 20
-15692.4514619
 10
-64.8212937341
 20
-15692.5166839
 10
-60.5113892243
 20
-15692.5811602
 10
-56.2014768494
 20
-15692.6448909
 10
-51.8915566097
 20
-15692.7078759
 10
-47.5816285051
 20
-15692.7701153
 10
-43.2716925355
 20
-15692.8316091
 10
-38.9617487011
 20
-15692.8923573
 10
-34.6517970019
 20
-15692.9523598
 10
-30.3418374377
 20
-15693.0116167
 10
-26.0318700088
 20
-15693.070128
 10
-21.721894715
 20
-15693.1278936
 10
-17.4119115564
 20
-15693.1849137
 10
-13.101920533
 20
-15693.2411881
 10
-8.79192164476
 20
-15693.2967169
 10
-4.48191489178
 20
-15693.3515001
 10
-0.17190027403
 20
-15693.4055377
 10
4.13812220849
 20
-15693.4588296
 10
8.44815255577
 20
-15693.511376
 10
12.7581907678
 20
-15693.5631767
 10
17.0682368446
 20
-15693.6142318
 10
21.3782907861
 20
-15693.6645413
 10
25.6883525923
 20
-15693.7141051
 10
29.9984222633
 20
-15693.7629234
 10
34.308499799
 20
-15693.8109961
 10
38.6185851995
 20
-15693.8583231
 10
42.9286784646
 20
-15693.9049045
 10
47.2387795945
 20
-15693.9507403
 10
47.2387795945
 20
-15693.9507403
 10
51.5488885891
 20
-15693.9958305
 10
55.8590054485
 20
-15694.0401751
 10
60.1691301725
 20
-15694.0837741
 10
64.4792627613
 20
-15694.1266275
 10
68.7894032148
 20
-15694.1687352
 10
73.099551533
 20
-15694.2100974
 10
77.409707716
 20
-15694.2507139
 10
81.7198717637
 20
-15694.2905848
 10
86.0300436762
 20
-15694.3297101
 10
90.3402234534
 20
-15694.3680898
 10
94.6504110954
 20
-15694.4057238
 10
98.9606066021
 20
-15694.4426123
 10
103.270809974
 20
-15694.4787551
 10
107.58102121
 20
-15694.5141523
 10
111.891240311
 20
-15694.5488039
 10
116.201467277
 20
-15694.5827099
 10
120.511702108
 20
-15694.6158703
 10
124.821944803
 20
-15694.648285
 10
129.132195364
 20
-15694.6799541
 10
133.442453789
 20
-15694.7108776
 10
137.752720079
 20
-15694.7410554
 10
142.062994234
 20
-15694.7704877
 10
146.373276254
 20
-15694.7991743
 10
150.683566138
 20
-15694.8271152
 10
154.993863888
 20
-15694.8543106
 10
159.304169503
 20
-15694.8807603
 10
163.614482982
 20
-15694.9064644
 10
167.924804327
 20
-15694.9314228
 10
172.235133536
 20
-15694.9556356
  0
LINE
  5
7d
330
1F
100
AcDbEntity
  8
Mirrors
100
AcDbLine
 10
171.226432245
 20
-15790.5852197
 30
0.0
  11
-78.8517423525
 21
-15796.6780719
 31
0.0
  0
LINE
  5
7e
330
1F
100
AcDbEntity
  8
Mirrors
100
AcDbLine
 10
3026507.10934
 20
93.619271507
 30
0.0
  11
3026657.01335
 21
93.6197000351
 31
0.0
  0
LINE
  5
7f
330
1F
100
AcDbEntity
  8
Mirrors
100
AcDbLine
 10
3026657.20596
 20
-126.380299415
 30
0.0
  11
3026507.10997
 21
-126.380728492
 31
0.0
  0
LINE
  5
80
330
1F
100
AcDbEntity
  8
Mirrors
100
AcDbLine
 10
3026522.10997
 20
-126.380685612
 30
0.0
  11
3026522.10934
 21
93.6193143872
 31
0.0
  0
LWPOLYLINE
  5
81
330
1F
100
AcDbEntity
  8
Mirrors
100
AcDbPolyline
 90
60
 70
0
43
0.0
 10
3026507.10997
 20
-126.380728492
 10
3026507.11017
 20
-122.587625043
 10
3026507.11037
 20
-118.794521594
 10
3026507.11056
 20
-115.001418146
 10
3026507.11074
 20
-111.208314697
 10
3026507.11092
 20
-107.415211248
 10
3026507.11108
 20
-103.622107799
 10
3026507.11124
 20
-99.8290043504
 10
3026507.1114
 20
-96.0359009017
 10
3026507.11154
 20
-92.242797453
 10
3026507.11168
 20
-88.4496940043
 10
3026507.11181
 20
-84.6565905557
 10
3026507.11193
 20
-80.863487107
 10
3026507.11204
 20
-77.0703836584
 10
3026507.11215
 20
-73.2772802098
 10
3026507.11225
 20
-69.4841767612
 10
3026507.11234
 20
-65.6910733127
 10
3026507.11242
 20
-61.8979698641
 10
3026507.1125
 20
-58.1048664156
 10
3026507.11257
 20
-54.3117629671
 10
3026507.11263
 20
-50.5186595187
 10
3026507.11268
 20
-46.7255560702
 10
3026507.11273
 20
-42.9324526218
 10
3026507.11277
 20
-39.1393491734
 10
3026507.1128
 20
-35.346245725
 10
3026507.11282
 20
-31.5531422767
 10
3026507.11284
 20
-27.7600388283
 10
3026507.11284
 20
-23.96693538
 10
3026507.11285
 20
-20.1738319317
 10
3026507.11284
 20
-16.3807284835
 10
3026507.11284
 20
-16.3807284835
 10
3026507.11282
 20
-12.5876250352
 10
3026507.1128
 20
-8.79452158699
 10
3026507.11277
 20
-5.00141813878
 10
3026507.11273
 20
-1.2083146906
 10
3026507.11269
 20
2.58478875757
 10
3026507.11264
 20
6.37789220571
 10
3026507.11258
 20
10.1709956538
 10
3026507.11251
 20
13.9640991019
 10
3026507.11243
 20
17.75720255
 10
3026507.11235
 20
21.5503059981
 10
3026507.11226
 20
25.3434094461
 10
3026507.11216
 20
29.1365128941
 10
3026507.11206
 20
32.9296163421
 10
3026507.11194
 20
36.7227197901
 10
3026507.11182
 20
40.515823238
 10
3026507.1117
 20
44.3089266859
 10
3026507.11156
 20
48.1020301338
 10
3026507.11142
 20
51.8951335817
 10
3026507.11127
 20
55.6882370296
 10
3026507.11111
 20
59.4813404774
 10
3026507.11094
 20
63.2744439252
 10
3026507.11077
 20
67.067547373
 10
3026507.11059
 20
70.8606508208
 10
3026507.1104
 20
74.6537542686
 10
3026507.1102
 20
78.4468577163
 10
3026507.11
 20
82.239961164
 10
3026507.10979
 20
86.0330646117
 10
3026507.10957
 20
89.8261680593
 10
3026507.10934
 20
93.619271507
  0
LINE
  5
82
330
1F
100
AcDbEntity
  8
Mirrors
100
AcDbLine
 10
3026657.01335
 20
93.6197000351
 30
0.0
  11
3026657.20596
 21
-126.380299415
 31
0.0
  0
LINE
  5
83
330
1F
100
AcDbEntity
  8
Mirrors
100
AcDbLine
 10
-117.59055708
 20
3023221.97227
 30
0.0
  11
-117.590933933
 21
3023372.06826
 31
0.0
  0
LINE
  5
84
330
1F
100
AcDbEntity
  8
Mirrors
100
AcDbLine
 10
102.409066548
 20
3023371.87683
 30
0.0
  11
102.409442919
 21
3023221.97282
 31
0.0
  0
LINE
  5
85
330
1F
100
AcDbEntity
  8
Mirrors
100
AcDbLine
 10
102.409405258
 20
3023236.97282
 30
0.0
  11
-117.590594741
 21
3023236.97227
 31
0.0
  0
LWPOLYLINE
  5
86
330
1F
100
AcDbEntity
  8
Mirrors
100
AcDbPolyline
 90
60
 70
0
43
0.0
 10
102.409442919
 20
3023221.97282
 10
98.6163394707
 20
3023221.97303
 10
94.8232360219
 20
3023221.97323
 10
91.0301325731
 20
3023221.97342
 10
87.2370291244
 20
3023221.9736
 10
83.4439256756
 20
3023221.97378
 10
79.6508222269
 20
3023221.97394
 10
75.8577187782
 20
3023221.97411
 10
72.0646153296
 20
3023221.97426
 10
68.2715118809
 20
3023221.9744
 10
64.4784084323
 20
3023221.97454
 10
60.6853049837
 20
3023221.97467
 10
56.8922015351
 20
3023221.9748
 10
53.0990980865
 20
3023221.97491
 10
49.3059946379
 20
3023221.97502
 10
45.5128911894
 20
3023221.97512
 10
41.7197877409
 20
3023221.97521
 10
37.9266842924
 20
3023221.9753
 10
34.1335808439
 20
3023221.97538
 10
30.3404773954
 20
3023221.97545
 10
26.547373947
 20
3023221.97551
 10
22.7542704985
 20
3023221.97556
 10
18.9611670501
 20
3023221.97561
 10
15.1680636017
 20
3023221.97565
 10
11.3749601534
 20
3023221.97568
 10
7.58185670503
 20
3023221.97571
 10
3.7887532567
 20
3023221.97572
 10
-0.0043501916145
 20
3023221.97573
 10
-3.79745363991
 20
3023221.97573
 10
-7.59055708818
 20
3023221.97573
 10
-7.59055708818
 20
3023221.97573
 10
-11.3836605364
 20
3023221.97572
 10
-15.1767639847
 20
3023221.97569
 10
-18.9698674329
 20
3023221.97567
 10
-22.7629708811
 20
3023221.97563
 10
-26.5560743293
 20
3023221.97559
 10
-30.3491777774
 20
3023221.97554
 10
-34.1422812256
 20
3023221.97548
 10
-37.9353846737
 20
3023221.97541
 10
-41.7284881218
 20
3023221.97534
 10
-45.5215915699
 20
3023221.97525
 10
-49.3146950179
 20
3023221.97517
 10
-53.107798466
 20
3023221.97507
 10
-56.900901914
 20
3023221.97496
 10
-60.694005362
 20
3023221.97485
 10
-64.48710881
 20
3023221.97473
 10
-68.280212258
 20
3023221.97461
 10
-72.0733157059
 20
3023221.97447
 10
-75.8664191539
 20
3023221.97433
 10
-79.6595226018
 20
3023221.97418
 10
-83.4526260497
 20
3023221.97402
 10
-87.2457294975
 20
3023221.97386
 10
-91.0388329454
 20
3023221.97369
 10
-94.8319363932
 20
3023221.97351
 10
-98.625039841
 20
3023221.97332
 10
-102.418143289
 20
3023221.97312
 10
-106.211246737
 20
3023221.97292
 10
-110.004350184
 20
3023221.97271
 10
-113.797453632
 20
3023221.97249
 10
-117.59055708
 20
3023221.97227
  0
LINE
  5
87
330
1F
100
AcDbEntity
  8
Mirrors
100
AcDbLine
 10
-117.590933933
 20
3023372.06826
 30
0.0
  11
102.409066548
 21
3023371.87683
 31
0.0
  0
LINE
  5
88
330
1F
100
AcDbEntity
  8
Mirrors
100
AcDbLine
 10
134.424059093
 20
134.276477229
 30
0.0
  11
191.149008642
 21
77.4891818845
 31
0.0
  0
LINE
  5
89
330
1F
100
AcDbEntity
  8
Mirrors
100
AcDbLine
 10
-78.074080449
 20
-190.688389542
 30
0.0
  11
-134.424059093
 21
-134.276477229
 31
0.0
  0
LINE
  5
8a
330
1F
100
AcDbEntity
  8
Mirrors
100
AcDbLine
 10
-128.770312683
 20
-139.936437612
 30
0.0
  11
140.077805502
 21
128.616516846
 31
0.0
  0
LINE
  5
8b
330
1F
100
AcDbEntity
  8
Mirrors
100
AcDbLine
 10
-134.424059093
 20
-134.276477229
 30
0.0
  11
134.424059093
 21
134.276477229
 31
0.0
  0
LINE
  5
8c
330
1F
100
AcDbEntity
  8
Mirrors
100
AcDbLine
 10
191.149008642
 20
77.4891818845
 30
0.0
  11
-78.074080449
 21
-190.688389542
 31
0.0
  0
LINE
  5
8d
330
1F
100
AcDbEntity
  8
Mirrors
100
AcDbLine
 10
390.280099826
 20
-19326.7088432
 30
0.0
  11
390.07113176
 21
-19422.3435187
 31
0.0
  0
LINE
  5
8e
330
1F
100
AcDbEntity
  8
Mirrors
100
AcDbLine
 10
140.052652572
 20
-19430.5274251
 30
0.0
  11
140.280696638
 21
-19326.1625781
 31
0.0
  0
LINE
  5
8f
330
1F
100
AcDbEntity
  8
Mirrors
100
AcDbLine
 10
140.258846032
 20
-19336.1625542
 30
0.0
  11
390.25824922
 21
-19336.7088194
 31
0.0
  0
LWPOLYLINE
  5
90
330
1F
100
AcDbEntity
  8
Mirrors
100
AcDbPolyline
 90
60
 70
0
43
0.0
 10
140.280696638
 20
-19326.1625781
 10
144.591028651
 20
-19326.1731522
 10
148.901360752
 20
-19326.1836858
 10
153.211692941
 20
-19326.1941789
 10
157.522025219
 20
-19326.2046314
 10
161.832357586
 20
-19326.2150433
 10
166.142690041
 20
-19326.2254147
 10
170.453022585
 20
-19326.2357455
 10
174.763355218
 20
-19326.2460358
 10
179.073687939
 20
-19326.2562855
 10
183.384020748
 20
-19326.2664947
 10
187.694353647
 20
-19326.2766633
 10
192.004686634
 20
-19326.2867914
 10
196.315019709
 20
-19326.2968789
 10
200.625352874
 20
-19326.3069259
 10
204.935686126
 20
-19326.3169323
 10
209.246019468
 20
-19326.3268981
 10
213.556352898
 20
-19326.3368234
 10
217.866686417
 20
-19326.3467081
 10
222.177020024
 20
-19326.3565523
 10
226.48735372
 20
-19326.366356
 10
230.797687504
 20
-19326.376119
 10
235.108021377
 20
-19326.3858415
 10
239.418355339
 20
-19326.3955235
 10
243.72868939
 20
-19326.4051649
 10
248.039023528
 20
-19326.4147658
 10
252.349357756
 20
-19326.4243261
 10
256.659692072
 20
-19326.4338458
 10
260.970026477
 20
-19326.443325
 10
265.28036097
 20
-19326.4527637
 10
265.28036097
 20
-19326.4527637
 10
269.590695552
 20
-19326.4621618
 10
273.901030223
 20
-19326.4715193
 10
278.211364982
 20
-19326.4808363
 10
282.52169983
 20
-19326.4901127
 10
286.832034767
 20
-19326.4993486
 10
291.142369792
 20
-19326.5085439
 10
295.452704906
 20
-19326.5176987
 10
299.763040108
 20
-19326.5268129
 10
304.073375399
 20
-19326.5358865
 10
308.383710778
 20
-19326.5449196
 10
312.694046247
 20
-19326.5539122
 10
317.004381803
 20
-19326.5628642
 10
321.314717449
 20
-19326.5717756
 10
325.625053183
 20
-19326.5806465
 10
329.935389005
 20
-19326.5894768
 10
334.245724917
 20
-19326.5982666
 10
338.556060916
 20
-19326.6070158
 10
342.866397005
 20
-19326.6157245
 10
347.176733182
 20
-19326.6243926
 10
351.487069448
 20
-19326.6330201
 10
355.797405802
 20
-19326.6416071
 10
360.107742245
 20
-19326.6501536
 10
364.418078776
 20
-19326.6586595
 10
368.728415397
 20
-19326.6671248
 10
373.038752105
 20
-19326.6755496
 10
377.349088903
 20
-19326.6839339
 10
381.659425789
 20
-19326.6922775
 10
385.969762763
 20
-19326.7005807
 10
390.280099826
 20
-19326.7088432
  0
LINE
  5
91
330
1F
100
AcDbEntity
  8
Mirrors
100
AcDbLine
 10
390.07113176
 20
-19422.3435187
 30
0.0
  11
140.052652572
 21
-19430.5274251
 31
0.0
  0
LINE
  5
92
330
1F
100
AcDbEntity
  8
Mirrors
100
AcDbLine
 10
172.532692709
 20
-4581.10373406
 30
0.0
  11
173.714177048
 21
-4485.47612862
 31
0.0
  0
LINE
  5
93
330
1F
100
AcDbEntity
  8
Mirrors
100
AcDbLine
 10
423.802952085
 20
-4479.83513056
 30
0.0
  11
422.51361397
 21
-4584.19226212
 31
0.0
  0
LINE
  5
94
330
1F
100
AcDbEntity
  8
Mirrors
100
AcDbLine
 10
422.637155093
 20
-4574.19302527
 30
0.0
  11
172.656233832
 21
-4571.10449721
 31
0.0
  0
LWPOLYLINE
  5
95
330
1F
100
AcDbEntity
  8
Mirrors
100
AcDbPolyline
 90
60
 70
0
43
0.0
 10
422.51361397
 20
-4584.19226212
 10
418.201406358
 20
-4584.3164069
 10
413.889275772
 20
-4584.43431728
 10
409.5772222
 20
-4584.54599434
 10
405.265245627
 20
-4584.65143912
 10
400.953346042
 20
-4584.75065261
 10
396.641523434
 20
-4584.84363577
 10
392.32977779
 20
-4584.9303895
 10
388.018109101
 20
-4585.01091469
 10
383.706517355
 20
-4585.08521218
 10
379.395002543
 20
-4585.15328275
 10
375.083564655
 20
-4585.21512718
 10
370.772203682
 20
-4585.27074617
 10
366.460919617
 20
-4585.32014042
 10
362.149712451
 20
-4585.36331056
 10
357.838582177
 20
-4585.4002572
 10
353.527528788
 20
-4585.4309809
 10
349.216552277
 20
-4585.45548218
 10
344.905652638
 20
-4585.47376153
 10
340.594829866
 20
-4585.4858194
 10
336.284083955
 20
-4585.4916562
 10
331.973414902
 20
-4585.49127229
 10
327.662822702
 20
-4585.48466801
 10
323.352307351
 20
-4585.47184365
 10
319.041868847
 20
-4585.45279945
 10
314.731507186
 20
-4585.42753564
 10
310.421222367
 20
-4585.39605239
 10
306.111014387
 20
-4585.35834983
 10
301.800883247
 20
-4585.31442806
 10
297.490828944
 20
-4585.26428714
 10
297.490828944
 20
-4585.26428714
 10
293.180851479
 20
-4585.20792709
 10
288.870950852
 20
-4585.14534789
 10
284.561127064
 20
-4585.07654949
 10
280.251380115
 20
-4585.00153177
 10
275.941710008
 20
-4584.92029461
 10
271.632116745
 20
-4584.83283784
 10
267.322600328
 20
-4584.73916124
 10
263.013160761
 20
-4584.63926455
 10
258.703798047
 20
-4584.53314749
 10
254.394512189
 20
-4584.42080973
 10
250.085303194
 20
-4584.30225089
 10
245.776171065
 20
-4584.17747057
 10
241.467115809
 20
-4584.04646832
 10
237.158137431
 20
-4583.90924365
 10
232.849235937
 20
-4583.76579605
 10
228.540411336
 20
-4583.61612494
 10
224.231663633
 20
-4583.46022972
 10
219.922992838
 20
-4583.29810976
 10
215.614398958
 20
-4583.12976436
 10
211.305882002
 20
-4582.95519282
 10
206.997441981
 20
-4582.77439437
 10
202.689078903
 20
-4582.58736821
 10
198.380792779
 20
-4582.39411351
 10
194.07258362
 20
-4582.19462939
 10
189.764451437
 20
-4581.98891493
 10
185.456396242
 20
-4581.77696918
 10
181.148418047
 20
-4581.55879115
 10
176.840516865
 20
-4581.3343798
 10
172.532692709
 20
-4581.10373406
  0
LINE
  5
96
330
1F
100
AcDbEntity
  8
Mirrors
100
AcDbLine
 10
173.714177048
 20
-4485.47612862
 30
0.0
  11
423.802952085
 21
-4479.83513056
 31
0.0
  0
LINE
  5
97
330
1F
100
AcDbEntity
  8
Mirrors
100
AcDbLine
 10
-19461.7355526
 20
101.717441151
 30
0.0
  11
-19557.3700711
 21
101.4459564
 31
0.0
  0
LINE
  5
98
330
1F
100
AcDbEntity
  8
Mirrors
100
AcDbLine
 10
-19566.8099188
 20
351.420166136
 30
0.0
  11
-19462.4452432
 21
351.716433827
 31
0.0
  0
LINE
  5
99
330
1F
100
AcDbEntity
  8
Mirrors
100
AcDbLine
 10
-19472.4452029
 20
351.688046205
 30
0.0
  11
-19471.7355123
 21
101.689053529
 31
0.0
  0
LWPOLYLINE
  5
9a
330
1F
100
AcDbEntity
  8
Mirrors
100
AcDbPolyline
 90
60
 70
0
43
0.0
 10
-19462.4452432
 20
351.716433827
 10
-19462.4341629
 20
347.406103086
 10
-19462.4230421
 20
343.09577246
 10
-19462.4118808
 20
338.78544195
 10
-19462.4006788
 20
334.475111554
 10
-19462.3894364
 20
330.164781274
 10
-19462.3781533
 20
325.854451108
 10
-19462.3668298
 20
321.544121058
 10
-19462.3554656
 20
317.233791123
 10
-19462.344061
 20
312.923461303
 10
-19462.3326157
 20
308.613131598
 10
-19462.3211299
 20
304.302802008
 10
-19462.3096036
 20
299.992472534
 10
-19462.2980367
 20
295.682143174
 10
-19462.2864292
 20
291.37181393
 10
-19462.2747812
 20
287.061484801
 10
-19462.2630926
 20
282.751155787
 10
-19462.2513635
 20
278.440826888
 10
-19462.2395939
 20
274.130498104
 10
-19462.2277836
 20
269.820169435
 10
-19462.2159329
 20
265.509840881
 10
-19462.2040415
 20
261.199512443
 10
-19462.1921096
 20
256.88918412
 10
-19462.1801372
 20
252.578855911
 10
-19462.1681242
 20
248.268527818
 10
-19462.1560706
 20
243.95819984
 10
-19462.1439765
 20
239.647871977
 10
-19462.1318419
 20
235.33754423
 10
-19462.1196667
 20
231.027216597
 10
-19462.1074509
 20
226.716889079
 10
-19462.1074509
 20
226.716889079
 10
-19462.0951946
 20
222.406561677
 10
-19462.0828977
 20
218.09623439
 10
-19462.0705603
 20
213.785907218
 10
-19462.0581823
 20
209.475580161
 10
-19462.0457638
 20
205.165253219
 10
-19462.0333047
 20
200.854926392
 10
-19462.020805
 20
196.54459968
 10
-19462.0082648
 20
192.234273084
 10
-19461.9956841
 20
187.923946602
 10
-19461.9830628
 20
183.613620236
 10
-19461.9704009
 20
179.303293985
 10
-19461.9576985
 20
174.992967849
 10
-19461.9449555
 20
170.682641828
 10
-19461.932172
 20
166.372315922
 10
-19461.9193479
 20
162.061990132
 10
-19461.9064833
 20
157.751664456
 10
-19461.8935781
 20
153.441338896
 10
-19461.8806323
 20
149.131013451
 10
-19461.867646
 20
144.82068812
 10
-19461.8546192
 20
140.510362905
 10
-19461.8415518
 20
136.200037805
 10
-19461.8284438
 20
131.889712821
 10
-19461.8152953
 20
127.579387951
 10
-19461.8021063
 20
123.269063196
 10
-19461.7888766
 20
118.958738557
 10
-19461.7756065
 20
114.648414033
 10
-19461.7622957
 20
110.338089624
 10
-19461.7489445
 20
106.02776533
 10
-19461.7355526
 20
101.717441151
  0
LINE
  5
9b
330
1F
100
AcDbEntity
  8
Mirrors
100
AcDbLine
 10
-19557.3700711
 20
101.4459564
 30
0.0
  11
-19566.8099188
 21
351.420166136
 31
0.0
  0
LINE
  5
9c
330
1F
100
AcDbEntity
  8
Mirrors
100
AcDbLine
 10
-15762.2252914
 20
-107.633324906
 30
0.0
  11
-15857.8546143
 21
-108.66649093
 31
0.0
  0
LINE
  5
9d
330
1F
100
AcDbEntity
  8
Mirrors
100
AcDbLine
 10
-15869.2851051
 20
141.224605627
 30
0.0
  11
-15764.9260993
 21
142.352085941
 31
0.0
  0
LINE
  5
9e
330
1F
100
AcDbEntity
  8
Mirrors
100
AcDbLine
 10
-15774.9255157
 20
142.244053624
 30
0.0
  11
-15772.2247078
 21
-107.741357223
 31
0.0
  0
LWPOLYLINE
  5
9f
330
1F
100
AcDbEntity
  8
Mirrors
100
AcDbPolyline
 90
60
 70
0
43
0.0
 10
-15764.9260993
 20
142.352085941
 10
-15764.9007838
 20
138.041763067
 10
-15764.8747227
 20
133.731448249
 10
-15764.8479159
 20
129.421141486
 10
-15764.8203635
 20
125.110842779
 10
-15764.7920654
 20
120.800552128
 10
-15764.7630218
 20
116.490269532
 10
-15764.7332325
 20
112.179994992
 10
-15764.7026976
 20
107.869728508
 10
-15764.671417
 20
103.559470079
 10
-15764.6393909
 20
99.2492197061
 10
-15764.6066191
 20
94.9389773886
 10
-15764.5731016
 20
90.6287431268
 10
-15764.5388386
 20
86.3185169205
 10
-15764.50383
 20
82.0082987697
 10
-15764.4680757
 20
77.6980886746
 10
-15764.4315758
 20
73.3878866349
 10
-15764.3943303
 20
69.0776926508
 10
-15764.3563392
 20
64.7675067222
 10
-15764.3176025
 20
60.4573288492
 10
-15764.2781201
 20
56.1471590316
 10
-15764.2378921
 20
51.8369972696
 10
-15764.1969186
 20
47.526843563
 10
-15764.1551994
 20
43.2166979119
 10
-15764.1127346
 20
38.9065603163
 10
-15764.0695242
 20
34.5964307762
 10
-15764.0255682
 20
30.2863092916
 10
-15763.9808665
 20
25.9761958625
 10
-15763.9354193
 20
21.6660904888
 10
-15763.8892265
 20
17.3559931706
 10
-15763.8892265
 20
17.3559931706
 10
-15763.842288
 20
13.0459039078
 10
-15763.7946039
 20
8.73582270057
 10
-15763.7461743
 20
4.42574954878
 10
-15763.696999
 20
0.115684452458
 10
-15763.6470781
 20
-4.19437258838
 10
-15763.5964115
 20
-8.50442157374
 10
-15763.5449994
 20
-12.8144625036
 10
-15763.4928417
 20
-17.124495378
 10
-15763.4399383
 20
-21.4345201969
 10
-15763.3862894
 20
-25.7445369603
 10
-15763.3318948
 20
-30.0545456682
 10
-15763.2767546
 20
-34.3645463205
 10
-15763.2208688
 20
-38.6745389174
 10
-15763.1642374
 20
-42.9845234587
 10
-15763.1068603
 20
-47.2944999445
 10
-15763.0487377
 20
-51.6044683747
 10
-15762.9898694
 20
-55.9144287493
 10
-15762.9302555
 20
-60.2243810684
 10
-15762.869896
 20
-64.5343253319
 10
-15762.8087909
 20
-68.8442615398
 10
-15762.7469401
 20
-73.154189692
 10
-15762.6843437
 20
-77.4641097887
 10
-15762.6210017
 20
-81.7740218297
 10
-15762.5569141
 20
-86.083925815
 10
-15762.4920808
 20
-90.3938217446
 10
-15762.4265019
 20
-94.7037096186
 10
-15762.3601774
 20
-99.0135894368
 10
-15762.2931072
 20
-103.323461199
 10
-15762.2252914
 20
-107.633324906
  0
LINE
  5
a0
330
1F
100
AcDbEntity
  8
Mirrors
100
AcDbLine
 10
-15857.8546143
 20
-108.66649093
 30
0.0
  11
-15869.2851051
 21
141.224605627
 31
0.0
  0
LINE
  5
a1
330
1F
100
AcDbEntity
  8
Mirrors
100
AcDbLine
 10
-4699.73486134
 20
393.643497346
 30
0.0
  11
-4604.10775921
 21
394.865039652
 31
0.0
  0
LINE
  5
a2
330
1F
100
AcDbEntity
  8
Mirrors
100
AcDbLine
 10
-4592.18503509
 20
144.996944633
 30
0.0
  11
-4696.54161741
 21
143.663891791
 31
0.0
  0
LINE
  5
a3
330
1F
100
AcDbEntity
  8
Mirrors
100
AcDbLine
 10
-4686.54243318
 20
143.791621549
 30
0.0
  11
-4689.73567712
 21
393.771227103
 31
0.0
  0
LWPOLYLINE
  5
a4
330
1F
100
AcDbEntity
  8
Mirrors
100
AcDbPolyline
 90
60
 70
0
43
0.0
 10
-4696.54161741
 20
143.663891791
 10
-4696.76891416
 20
147.971684783
 10
-4696.99015822
 20
152.279555092
 10
-4697.20535058
 20
156.587502706
 10
-4697.41449218
 20
160.895527612
 10
-4697.61758393
 20
165.203629799
 10
-4697.81462671
 20
169.511809256
 10
-4698.00562134
 20
173.820065971
 10
-4698.19056865
 20
178.128399936
 10
-4698.36946938
 20
182.436811139
 10
-4698.54232427
 20
186.745299573
 10
-4698.70913402
 20
191.053865227
 10
-4698.86989929
 20
195.362508093
 10
-4699.02462069
 20
199.671228164
 10
-4699.17329882
 20
203.980025431
 10
-4699.31593423
 20
208.288899888
 10
-4699.45252743
 20
212.597851529
 10
-4699.58307891
 20
216.906880347
 10
-4699.70758911
 20
221.215986336
 10
-4699.82605843
 20
225.525169491
 10
-4699.93848726
 20
229.834429808
 10
-4700.04487593
 20
234.143767282
 10
-4700.14522474
 20
238.453181909
 10
-4700.23953396
 20
242.762673686
 10
-4700.32780382
 20
247.07224261
 10
-4700.41003452
 20
251.381888678
 10
-4700.48622622
 20
255.691611889
 10
-4700.55637903
 20
260.00141224
 10
-4700.62049306
 20
264.311289731
 10
-4700.67856835
 20
268.621244361
 10
-4700.67856835
 20
268.621244361
 10
-4700.73060492
 20
272.93127613
 10
-4700.77660275
 20
277.241385037
 10
-4700.81656179
 20
281.551571084
 10
-4700.85048196
 20
285.861834272
 10
-4700.87836312
 20
290.172174602
 10
-4700.90020512
 20
294.482592077
 10
-4700.91600776
 20
298.793086698
 10
-4700.92577081
 20
303.10365847
 10
-4700.929494
 20
307.414307394
 10
-4700.92717703
 20
311.725033476
 10
-4700.91881956
 20
316.035836719
 10
-4700.90442123
 20
320.346717128
 10
-4700.88398161
 20
324.657674709
 10
-4700.85750027
 20
328.968709466
 10
-4700.82497672
 20
333.279821408
 10
-4700.78641045
 20
337.591010538
 10
-4700.7418009
 20
341.902276866
 10
-4700.6911475
 20
346.213620398
 10
-4700.63444961
 20
350.525041143
 10
-4700.57170657
 20
354.836539108
 10
-4700.5029177
 20
359.148114303
 10
-4700.42808226
 20
363.459766737
 10
-4700.34719948
 20
367.77149642
 10
-4700.26026857
 20
372.083303361
 10
-4700.16728868
 20
376.395187573
 10
-4700.06825894
 20
380.707149065
 10
-4699.96317844
 20
385.01918785
 10
-4699.85204623
 20
389.331303939
 10
-4699.73486134
 20
393.643497346
  0
LINE
  5
a5
330
1F
100
AcDbEntity
  8
Mirrors
100
AcDbLine
 10
-4604.10775921
 20
394.865039652
 30
0.0
  11
-4592.18503509
 21
144.996944633
 31
0.0
  0
TEXT
  5
a7
330
1F
100
AcDbEntity
  8
text
100
AcDbText
 10
3026407.11281
 20
-6.40054481701
 30
0.0
  40
10.0
  1

 50
0.0
 7
Standard
100
AcDbText
  0
TEXT
  5
a8
330
1F
100
AcDbEntity
  8
text
100
AcDbText
 10
-17.5903060108
 20
3023121.9757
 30
0.0
  40
10.0
  1

 50
0.0
 7
Standard
100
AcDbText
  0
TEXT
  5
a9
330
1F
100
AcDbEntity
  8
text
100
AcDbText
 10
-15663.900297
 20
7.2458995968
 30
0.0
  40
10.0
  1

 50
0.0
 7
Standard
100
AcDbText
  0
TEXT
  5
aa
330
1F
100
AcDbEntity
  8
text
100
AcDbText
 10
-15663.900974
 20
7.3085482757
 30
0.0
  40
10.0
  1

 50
0.0
 7
Standard
100
AcDbText
  0
TEXT
  5
ab
330
1F
100
AcDbEntity
  8
text
100
AcDbText
 10
188.270716884
 20
-34.9893303833
 30
0.0
  40
10.0
  1

 50
0.0
 7
Standard
100
AcDbText
  0
TEXT
  5
ac
330
1F
100
AcDbEntity
  8
text
100
AcDbText
 10
-5.25537536338
 20
11.8880501792
 30
0.0
  40
10.0
  1

 50
0.0
 7
Standard
100
AcDbText
  0
TEXT
  5
ad
330
1F
100
AcDbEntity
  8
text
100
AcDbText
 10
-99.9889294282
 20
10.1100935621
 30
0.0
  40
10.0
  1

 50
0.0
 7
Standard
100
AcDbText
  0
TEXT
  5
ae
330
1F
100
AcDbEntity
  8
text
100
AcDbText
 10
7.32396834765
 20
10.8488266583
 30
0.0
  40
10.0
  1

 50
0.0
 7
Standard
100
AcDbText
  0
TEXT
  5
af
330
1F
100
AcDbEntity
  8
text
100
AcDbText
 10
-4800.70655304
 20
278.337327847
 30
0.0
  40
10.0
  1

 50
0.0
 7
Standard
100
AcDbText
  0
TEXT
  5
b0
330
1F
100
AcDbEntity
  8
text
100
AcDbText
 10
93.5259286739
 20
-36.8776260785
 30
0.0
  40
10.0
  1

 50
0.0
 7
Standard
100
AcDbText
  0
TEXT
  5
b1
330
1F
100
AcDbEntity
  8
text
100
AcDbText
 10
-19362.0794662
 20
217.000805593
 30
0.0
  40
10.0
  1

 50
0.0
 7
Standard
100
AcDbText
  0
TEXT
  5
b2
330
1F
100
AcDbEntity
  8
text
100
AcDbText
 10
-19362.0794706
 20
217.003456594
 30
0.0
  40
10.0
  1

 50
0.0
 7
Standard
100
AcDbText
  0
TEXT
  5
b3
330
1F
100
AcDbEntity
  8
text
100
AcDbText
 10
45.826629383
 20
-9988.08119142
 30
0.0
  40
10.0
  1

 50
0.0
 7
Standard
100
AcDbText
  0
TEXT
  5
b4
330
1F
100
AcDbEntity
  8
text
100
AcDbText
 10
-9899.94268333
 20
0.962329771961
 30
0.0
  40
10.0
  1

 50
0.0
 7
Standard
100
AcDbText
  0
TEXT
  5
b5
330
1F
100
AcDbEntity
  8
text
100
AcDbText
 10
-4800.87989992
 20
276.355799152
 30
0.0
  40
10.0
  1

 50
0.0
 7
Standard
100
AcDbText
  0
TEXT
  5
b6
330
1F
100
AcDbEntity
  8
text
100
AcDbText
 10
-4800.70655304
 20
278.337327848
 30
0.0
  40
10.0
  1

 50
0.0
 7
Standard
100
AcDbText
  0
TEXT
  5
b7
330
1F
100
AcDbEntity
  8
text
100
AcDbText
 10
-4800.70661555
 20
278.335206646
 30
0.0
  40
10.0
  1

 50
0.0
 7
Standard
100
AcDbText
  0
TEXT
  5
b8
330
1F
100
AcDbEntity
  8
text
100
AcDbText
 10
-4800.87984635
 20
276.348073367
 30
0.0
  40
10.0
  1

 50
0.0
 7
Standard
100
AcDbText
  0
TEXT
  5
b9
330
1F
100
AcDbEntity
  8
text
100
AcDbText
 10
9.99974891361
 20
100.000025096
 30
0.0
  40
10.0
  1

 50
0.0
 7
Standard
100
AcDbText
  0
TEXT
  5
ba
330
1F
100
AcDbEntity
  8
text
100
AcDbText
 10
-15663.6879485
 20
9.62916416318
 30
0.0
  40
10.0
  1

 50
0.0
 7
Standard
100
AcDbText
  0
TEXT
  5
bb
330
1F
100
AcDbEntity
  8
text
100
AcDbText
 10
7.3863326411
 20
10.9109496912
 30
0.0
  40
10.0
  1

 50
0.0
 7
Standard
100
AcDbText
  0
TEXT
  5
bc
330
1F
100
AcDbEntity
  8
text
100
AcDbText
 10
-21513.3894092
 20
-46.0244761905
 30
0.0
  40
10.0
  1

 50
0.0
 7
Standard
100
AcDbText
  0
TEXT
  5
bd
330
1F
100
AcDbEntity
  8
text
100
AcDbText
 10
-21543.6758405
 20
-45.9526169455
 30
0.0
  40
10.0
  1

 50
0.0
 7
Standard
100
AcDbText
  0
TEXT
  5
be
330
1F
100
AcDbEntity
  8
text
100
AcDbText
 10
-27518.1006687
 20
26435.5629647
 30
0.0
  40
10.0
  1

 50
0.0
 7
Standard
100
AcDbText
  0
TEXT
  5
bf
330
1F
100
AcDbEntity
  8
text
100
AcDbText
 10
-27359.1204277
 20
146.905071997
 30
0.0
  40
10.0
  1

 50
0.0
 7
Standard
100
AcDbText
  0
TEXT
  5
c0
330
1F
100
AcDbEntity
  8
text
100
AcDbText
 10
-27748.0780198
 20
236.806627729
 30
0.0
  40
10.0
  1

 50
0.0
 7
Standard
100
AcDbText
  0
TEXT
  5
c1
330
1F
100
AcDbEntity
  8
text
100
AcDbText
 10
-27518.5902962
 20
26465.5479304
 30
0.0
  40
10.0
  1

 50
0.0
 7
Standard
100
AcDbText
  0
TEXT
  5
c2
330
1F
100
AcDbEntity
  8
text
100
AcDbText
 10
-27320.3891904
 20
164.560399792
 30
0.0
  40
10.0
  1

 50
0.0
 7
Standard
100
AcDbText
  0
TEXT
  5
c3
330
1F
100
AcDbEntity
  8
text
100
AcDbText
 10
-25354.171702
 20
384.308010436
 30
0.0
  40
10.0
  1

 50
0.0
 7
Standard
100
AcDbText
  0
TEXT
  5
c4
330
1F
100
AcDbEntity
  8
text
100
AcDbText
 10
-27891.5977452
 20
134.657097327
 30
0.0
  40
10.0
  1

 50
0.0
 7
Standard
100
AcDbText
  0
TEXT
  5
c5
330
1F
100
AcDbEntity
  8
text
100
AcDbText
 10
-19562.1354356
 20
236.432972566
 30
0.0
  40
10.0
  1

 50
0.0
 7
Standard
100
AcDbText
  0
TEXT
  5
c6
330
1F
100
AcDbEntity
  8
text
100
AcDbText
 10
-20514.2704976
 20
-86.7193675017
 30
0.0
  40
10.0
  1

 50
0.0
 7
Standard
100
AcDbText
  0
TEXT
  5
c7
330
1F
100
AcDbEntity
  8
text
100
AcDbText
 10
-24330.9146572
 20
267.549285412
 30
0.0
  40
10.0
  1

 50
0.0
 7
Standard
100
AcDbText
  0
TEXT
  5
c8
330
1F
100
AcDbEntity
  8
text
100
AcDbText
 10
-19661.953028
 20
237.719098734
 30
0.0
  40
10.0
  1

 50
0.0
 7
Standard
100
AcDbText
  0
TEXT
  5
c9
330
1F
100
AcDbEntity
  8
text
100
AcDbText
 10
-27519.9551417
 20
26495.6749674
 30
0.0
  40
10.0
  1

 50
0.0
 7
Standard
100
AcDbText
  0
TEXT
  5
ca
330
1F
100
AcDbEntity
  8
text
100
AcDbText
 10
-27511.0085343
 20
27375.7599875
 30
0.0
  40
10.0
  1

 50
0.0
 7
Standard
100
AcDbText
  0
TEXT
  5
cb
330
1F
100
AcDbEntity
  8
text
100
AcDbText
 10
-27505.7416572
 20
27795.8342277
 30
0.0
  40
10.0
  1

 50
0.0
 7
Standard
100
AcDbText
  0
TEXT
  5
cc
330
1F
100
AcDbEntity
  8
text
100
AcDbText
 10
-27510.5527463
 20
27395.7979768
 30
0.0
  40
10.0
  1

 50
0.0
 7
Standard
100
AcDbText
  0
TEXT
  5
cd
330
1F
100
AcDbEntity
  8
text
100
AcDbText
 10
-27858.0513281
 20
119.544241766
 30
0.0
  40
10.0
  1

 50
0.0
 7
Standard
100
AcDbText
  0
TEXT
  5
ce
330
1F
100
AcDbEntity
  8
text
100
AcDbText
 10
-24360.3560947
 20
272.115934628
 30
0.0
  40
10.0
  1

 50
0.0
 7
Standard
100
AcDbText
  0
TEXT
  5
cf
330
1F
100
AcDbEntity
  8
text
100
AcDbText
 10
9.21471583871
 20
-15756.1344271
 30
0.0
  40
25.0
  1
SR3
 50
0.0
 7
Standard
100
AcDbText
  0
TEXT
  5
d0
330
1F
100
AcDbEntity
  8
text
100
AcDbText
 10
3026507.10965
 20
-35.1305140913
 30
0.0
  40
37.5
  1
ETMX
 50
0.0
 7
Standard
100
AcDbText
  0
TEXT
  5
d1
330
1F
100
AcDbEntity
  8
text
100
AcDbText
 10
-82.5907453865
 20
3023278.22254
 30
0.0
  40
37.5
  1
ETMY
 50
0.0
 7
Standard
100
AcDbText
  0
TEXT
  5
d2
330
1F
100
AcDbEntity
  8
text
100
AcDbText
 10
8.26873204821
 20
-38.2998019143
 30
0.0
  40
20.0
  1
BS
 50
0.0
 7
Standard
100
AcDbText
  0
TEXT
  5
d3
330
1F
100
AcDbEntity
  8
text
100
AcDbText
 10
227.671145199
 20
-19388.9355913
 30
0.0
  40
25.0
  1
SRM
 50
0.0
 7
Standard
100
AcDbText
  0
TEXT
  5
d4
330
1F
100
AcDbEntity
  8
text
100
AcDbText
 10
260.640858953
 20
-4545.15181384
 30
0.0
  40
25.0
  1
SR2
 50
0.0
 7
Standard
100
AcDbText
  0
TEXT
  5
d5
330
1F
100
AcDbEntity
  8
text
100
AcDbText
 10
-19549.5901964
 20
214.074999379
 30
0.0
  40
25.0
  1
PRM
 50
0.0
 7
Standard
100
AcDbText
  0
TEXT
  5
d6
330
1F
100
AcDbEntity
  8
text
100
AcDbText
 10
-15851.0727775
 20
4.31921893312
 30
0.0
  40
25.0
  1
PR3
 50
0.0
 7
Standard
100
AcDbText
  0
TEXT
  5
d7
330
1F
100
AcDbEntity
  8
text
100
AcDbText
 10
-4685.64231826
 20
256.792343355
 30
0.0
  40
25.0
  1
PR2
 50
0.0
 7
Standard
100
AcDbText
  0
LINE
  5
d9
330
1F
100
AcDbEntity
  8
main_beam
100
AcDbLine
 10
88.208227478
 20
-25.0518326565
 30
0.0
  11
3026507.11284
 21
-16.4002589486
 31
0.0
  0
LINE
  5
da
330
1F
100
AcDbEntity
  8
main_beam
100
AcDbLine
 10
-1.66977542904e-10
 20
-1.68448588411e-10
 30
0.0
  11
-7.5905570859
 21
3023221.97573
 31
0.0
  0
LINE
  5
db
330
1F
100
AcDbEntity
  8
main_beam
100
AcDbLine
 10
-1.12798659302e-08
 20
-1.139027761e-08
 30
0.0
  11
-15763.8892265
 21
17.3559931591
 31
0.0
  0
LINE
  5
dc
330
1F
100
AcDbEntity
  8
main_beam
100
AcDbLine
 10
0.0623262563373
 20
0.0622578294109
 30
0.0
  11
-15763.8899033
 21
17.4186438901
 31
0.0
  0
LINE
  5
dd
330
1F
100
AcDbEntity
  8
main_beam
100
AcDbLine
 10
3026507.11284
 20
-16.4002589486
 30
0.0
  11
88.2706885036
 21
-24.9896141959
 31
0.0
  0
LINE
  5
de
330
1F
100
AcDbEntity
  8
main_beam
100
AcDbLine
 10
-1.66977542904e-10
 20
-1.68448588411e-10
 30
0.0
  11
88.208227478
 21
-25.0518326565
 31
0.0
  0
LINE
  5
df
330
1F
100
AcDbEntity
  8
main_beam
100
AcDbLine
 10
-15763.8892265
 20
17.3559931704
 30
0.0
  11
-1.68753899743e-10
 21
-1.6843818007e-10
 31
0.0
  0
LINE
  5
e0
330
1F
100
AcDbEntity
  8
main_beam
100
AcDbLine
 10
-1.12798659302e-08
 20
-1.139027761e-08
 30
0.0
  11
24.9160429426
 21
-88.0982243915
 31
0.0
  0
LINE
  5
e1
330
1F
100
AcDbEntity
  8
main_beam
100
AcDbLine
 10
-19462.1074509
 20
226.716889079
 30
0.0
  11
-4700.67856835
 21
268.621244361
 31
0.0
  0
LINE
  5
e2
330
1F
100
AcDbEntity
  8
main_beam
100
AcDbLine
 10
88.2706885035
 20
-24.9896141959
 30
0.0
  11
0.0623262563363
 21
0.0622578294109
 31
0.0
  0
LINE
  5
e3
330
1F
100
AcDbEntity
  8
main_beam
100
AcDbLine
 10
-4700.67856835
 20
268.62124436
 30
0.0
  11
-19462.1074509
 21
226.716889079
 31
0.0
  0
LINE
  5
e4
330
1F
100
AcDbEntity
  8
main_beam
100
AcDbLine
 10
-4700.67866062
 20
268.628468274
 30
0.0
  11
-19462.1074583
 21
226.71950888
 31
0.0
  0
LINE
  5
e5
330
1F
100
AcDbEntity
  8
main_beam
100
AcDbLine
 10
24.9160429426
 20
-88.0982243915
 30
0.0
  11
35.9368434611
 21
-10088.0921515
 31
0.0
  0
LINE
  5
e6
330
1F
100
AcDbEntity
  8
main_beam
100
AcDbLine
 10
0.0623262563373
 20
0.0622578294109
 30
0.0
  11
-9999.93161255
 21
11.0724253863
 31
0.0
  0
LINE
  5
e7
330
1F
100
AcDbEntity
  8
main_beam
100
AcDbLine
 10
-15763.8899033
 20
17.4186438901
 30
0.0
  11
-4700.67866062
 21
268.628468274
 31
0.0
  0
LINE
  5
e8
330
1F
100
AcDbEntity
  8
main_beam
100
AcDbLine
 10
-19462.1074509
 20
226.716889079
 30
0.0
  11
-4700.67856835
 21
268.621244361
 31
0.0
  0
LINE
  5
e9
330
1F
100
AcDbEntity
  8
main_beam
100
AcDbLine
 10
-19462.1074583
 20
226.71950888
 30
0.0
  11
-4700.678634
 21
268.619090815
 31
0.0
  0
LINE
  5
ea
330
1F
100
AcDbEntity
  8
main_beam
100
AcDbLine
 10
-15763.8892265
 20
17.3559931591
 30
0.0
  11
-4700.67856835
 21
268.62124436
 31
0.0
  0
LINE
  5
eb
330
1F
100
AcDbEntity
  8
main_beam
100
AcDbLine
 10
-7.5905570859
 20
3023221.97573
 30
0.0
  11
-1.12782977402e-08
 21
-1.13686837722e-08
 31
0.0
  0
LINE
  5
ec
330
1F
100
AcDbEntity
  8
main_beam
100
AcDbLine
 10
-4700.67856835
 20
268.621244361
 30
0.0
  11
-15763.8892265
 21
17.3559931704
 31
0.0
  0
LINE
  5
ed
330
1F
100
AcDbEntity
  8
main_beam
100
AcDbLine
 10
0.0623262563373
 20
0.0622578294109
 30
0.0
  11
24.9784083712
 21
-88.0361011567
 31
0.0
  0
LINE
  5
ee
330
1F
100
AcDbEntity
  8
main_beam
100
AcDbLine
 10
-21444.0514655
 20
-59.1807654151
 30
0.0
  11
-21413.9454352
 21
-60.5467363273
 31
0.0
  0
LINE
  5
ef
330
1F
100
AcDbEntity
  8
main_beam
100
AcDbLine
 10
-27226.8173004
 20
127.8956839
 30
0.0
  11
-21444.0514655
 21
-59.1807654151
 31
0.0
  0
LINE
  5
f0
330
1F
100
AcDbEntity
  8
main_beam
100
AcDbLine
 10
-27259.072
 20
136.953797
 30
0.0
  11
-27509.048
 21
26535.65317
 31
0.0
  0
LINE
  5
f1
330
1F
100
AcDbEntity
  8
main_beam
100
AcDbLine
 10
-27759.0244545
 20
136.905799065
 30
0.0
  11
-27259.1204459
 21
136.904890186
 31
0.0
  0
LINE
  5
f2
330
1F
100
AcDbEntity
  8
main_beam
100
AcDbLine
 10
-27509.048
 20
26535.65317
 30
0.0
  11
-27759.0244545
 21
136.905799065
 31
0.0
  0
LINE
  5
f3
330
1F
100
AcDbEntity
  8
main_beam
100
AcDbLine
 10
-27509.048
 20
26535.65317
 30
0.0
  11
-27509.2436809
 21
26565.6111143
 31
0.0
  0
LINE
  5
f4
330
1F
100
AcDbEntity
  8
main_beam
100
AcDbLine
 10
-27259.072
 20
136.953797
 30
0.0
  11
-27226.8173004
 21
127.8956839
 31
0.0
  0
LINE
  5
f5
330
1F
100
AcDbEntity
  8
main_beam
100
AcDbLine
 10
-24458.855873
 20
292.060700194
 30
0.0
  11
-25452.3897244
 21
405.59697659
 31
0.0
  0
LINE
  5
f6
330
1F
100
AcDbEntity
  8
main_beam
100
AcDbLine
 10
-29790.2809515
 20
63.2282381668
 30
0.0
  11
-27791.326695
 21
127.895699091
 31
0.0
  0
LINE
  5
f7
330
1F
100
AcDbEntity
  8
main_beam
100
AcDbLine
 10
-19562.089995
 20
226.433061268
 30
0.0
  11
-19462.1074509
 21
226.716889079
 31
0.0
  0
LINE
  5
f8
330
1F
100
AcDbEntity
  8
main_beam
100
AcDbLine
 10
-21413.9454352
 20
-60.5467363273
 30
0.0
  11
-20414.7530916
 21
-100.729574783
 31
0.0
  0
LINE
  5
f9
330
1F
100
AcDbEntity
  8
main_beam
100
AcDbLine
 10
-21444.0514655
 20
-59.1807654151
 30
0.0
  11
-24429.082185
 21
289.069891802
 31
0.0
  0
LINE
  5
fa
330
1F
100
AcDbEntity
  8
main_beam
100
AcDbLine
 10
-24429.082185
 20
289.069891802
 30
0.0
  11
-19562.089995
 21
226.433061268
 31
0.0
  0
LINE
  5
fb
330
1F
100
AcDbEntity
  8
main_beam
100
AcDbLine
 10
-27509.2436809
 20
26565.6111143
 30
0.0
  11
-27508.9391491
 21
26595.5681499
 31
0.0
  0
LINE
  5
fc
330
1F
100
AcDbEntity
  8
main_beam
100
AcDbLine
 10
-27509.2436809
 20
26565.6111143
 30
0.0
  11
-27499.9925418
 21
27475.65317
 31
0.0
  0
LINE
  5
fd
330
1F
100
AcDbEntity
  8
main_beam
100
AcDbLine
 10
-27499.8517918
 20
27495.7253983
 30
0.0
  11
-27494.3728632
 21
27895.6878733
 31
0.0
  0
LINE
  5
fe
330
1F
100
AcDbEntity
  8
main_beam
100
AcDbLine
 10
-27499.9925418
 20
27475.65317
 30
0.0
  11
-27499.8517918
 21
27495.7253983
 31
0.0
  0
LINE
  5
ff
330
1F
100
AcDbEntity
  8
main_beam
100
AcDbLine
 10
-27791.326695
 20
127.895699091
 30
0.0
  11
-27759.072
 21
136.953797
 31
0.0
  0
LINE
  5
100
330
1F
100
AcDbEntity
  8
main_beam
100
AcDbLine
 10
-24429.082185
 20
289.069891802
 30
0.0
  11
-24458.855873
 21
292.060700194
 31
0.0
  0
LWPOLYLINE
  5
105
330
1F
100
AcDbEntity
  8
main_beam_width
100
AcDbPolyline
 90
100
 70
0
43
0.0
 10
125.344881549
 20
11.9406026256
 10
30694.857691
 20
11.0128295343
 10
61264.3705005
 20
10.0873601
 10
91833.88331
 20
9.16440047992
 10
122403.396119
 20
8.24418157631
 10
152972.908929
 20
7.3269627592
 10
183542.421738
 20
6.41303626011
 10
214111.934548
 20
5.50273237608
 10
244681.447357
 20
4.59642565616
 10
275250.960167
 20
3.69454228337
 10
305820.472976
 20
2.7975689157
 10
336389.985785
 20
1.90606331332
 10
366959.498595
 20
1.020667159
 10
397529.011404
 20
0.142121576618
 10
428098.524213
 20
-0.728714025145
 10
458668.037023
 20
-1.59083900924
 10
489237.549832
 20
-2.44308351548
 10
519807.062641
 20
-3.28407425968
 10
550376.57545
 20
-4.11219274987
 10
580946.08826
 20
-4.92552432685
 10
611515.601069
 20
-5.72179627805
 10
642085.113878
 20
-6.49830327387
 10
672654.626687
 20
-7.25181872134
 10
703224.139496
 20
-7.97849163969
 10
733793.652304
 20
-8.67373086158
 10
764363.165113
 20
-9.33208253354
 10
794932.677922
 20
-9.94711406519
 10
825502.19073
 20
-10.5113288954
 10
856071.703538
 20
-11.0161519626
 10
886641.216347
 20
-11.452043364
 10
917210.729154
 20
-11.8088099933
 10
947780.241962
 20
-12.0761772897
 10
978349.754769
 20
-12.2446363839
 10
1008919.26758
 20
-12.3064859546
 10
1039488.78038
 20
-12.2568660535
 10
1070058.29319
 20
-12.0945006476
 10
1100627.806
 20
-11.8219043308
 10
1131197.3188
 20
-11.4449796629
 10
1161766.83161
 20
-10.9721462543
 10
1192336.34441
 20
-10.4132750697
 10
1222905.85722
 20
-9.77869450819
 10
1253475.37002
 20
-9.0784311054
 10
1284044.88283
 20
-8.32172883783
 10
1314614.39563
 20
-7.51681086007
 10
1345183.90844
 20
-6.67081561591
 10
1375753.42124
 20
-5.78984026981
 10
1406322.93404
 20
-4.87903971049
 10
1436892.44685
 20
-3.94274679015
 10
1467461.95965
 20
-2.9845936363
 10
1498031.47246
 20
-2.00762366264
 10
1528600.98526
 20
-1.01438996323
 10
1559170.49806
 20
-0.00703918777956
 10
1589740.01087
 20
1.0126182716
 10
1620309.52367
 20
2.04305020809
 10
1650879.03648
 20
3.08295486467
 10
1681448.54928
 20
4.13122182548
 10
1712018.06208
 20
5.18690000956
 10
1742587.57489
 20
6.24917146472
 10
1773157.08769
 20
7.31732987649
 10
1803726.60049
 20
8.39076290253
 10
1834296.1133
 20
9.46893760967
 10
1864865.6261
 20
10.5513884299
 10
1895435.13891
 20
11.6377071648
 10
1926004.65171
 20
12.7275346601
 10
1956574.16451
 20
13.8205538458
 10
1987143.67732
 20
14.9164838961
 10
2017713.19012
 20
16.0150753105
 10
2048282.70292
 20
17.1161057566
 10
2078852.21573
 20
18.2193765429
 10
2109421.72853
 20
19.3247096159
 10
2139991.24134
 20
20.4319449951
 10
2170560.75414
 20
21.5409385743
 10
2201130.26694
 20
22.6515602309
 10
2231699.77975
 20
23.7636921947
 10
2262269.29255
 20
24.8772276367
 10
2292838.80535
 20
25.9920694438
 10
2323408.31816
 20
27.1081291533
 10
2353977.83096
 20
28.2253260216
 10
2384547.34376
 20
29.3435862102
 10
2415116.85657
 20
30.4628420708
 10
2445686.36937
 20
31.583031517
 10
2476255.88218
 20
32.7040974696
 10
2506825.39498
 20
33.8259873666
 10
2537394.90778
 20
34.9486527294
 10
2567964.42059
 20
36.0720487769
 10
2598533.93339
 20
37.1961340828
 10
2629103.44619
 20
38.3208702697
 10
2659672.959
 20
39.4462217357
 10
2690242.4718
 20
40.5721554102
 10
2720811.9846
 20
41.6986405341
 10
2751381.49741
 20
42.8256484627
 10
2781951.01021
 20
43.9531524888
 10
2812520.52302
 20
45.0811276821
 10
2843090.03582
 20
46.2095507451
 10
2873659.54862
 20
47.3383998821
 10
2904229.06143
 20
48.4676546813
 10
2934798.57423
 20
49.5972960067
 10
2965368.08703
 20
50.727305901
 10
2995937.59984
 20
51.8576674963
 10
3026507.11264
 20
52.9883649337
  0
LWPOLYLINE
  5
106
330
1F
100
AcDbEntity
  8
main_beam_width
100
AcDbPolyline
 90
100
 70
0
43
0.0
 10
51.0690945421
 20
-62.0467371769
 10
30621.3321608
 20
-60.9441545667
 10
61191.5952271
 20
-59.843875258
 10
91761.8582934
 20
-58.7461053681
 10
122332.12136
 20
-57.6510757532
 10
152902.384426
 20
-56.5590457312
 10
183472.647492
 20
-55.470307473
 10
214042.910559
 20
-54.3851912062
 10
244613.173625
 20
-53.304071399
 10
275183.436691
 20
-52.2273741407
 10
305753.699758
 20
-51.1555859796
 10
336323.962824
 20
-50.0892645479
 10
366894.22589
 20
-49.0290513776
 10
397464.488957
 20
-47.9756874147
 10
428034.752023
 20
-46.9300318576
 10
458605.01509
 20
-45.8930850935
 10
489175.278156
 20
-44.8660166848
 10
519745.541223
 20
-43.8501995603
 10
550315.804289
 20
-42.8472517869
 10
580886.067356
 20
-41.8590875148
 10
611456.330423
 20
-40.8879788478
 10
642026.593489
 20
-39.9366303896
 10
672596.856556
 20
-39.0082678724
 10
703167.119623
 20
-38.1067412669
 10
733737.38269
 20
-37.2366405753
 10
764307.645757
 20
-36.4034183426
 10
794877.908824
 20
-35.6135057512
 10
825448.171891
 20
-34.8743979532
 10
856018.434959
 20
-34.1946687746
 10
886588.698027
 20
-33.5838573302
 10
917158.961095
 20
-33.0521567553
 10
947729.224163
 20
-32.609842871
 10
978299.487231
 20
-32.2664273688
 10
1008869.7503
 20
-32.0296160198
 10
1039440.01337
 20
-31.9042744868
 10
1070010.27644
 20
-31.8916849882
 10
1100580.53951
 20
-31.9893385831
 10
1131150.80258
 20
-32.1913369747
 10
1161721.06565
 20
-32.4892629966
 10
1192291.32872
 20
-32.8732463602
 10
1222861.59179
 20
-33.3329579584
 10
1253431.85486
 20
-33.8583696627
 10
1284002.11793
 20
-34.4402354725
 10
1314572.381
 20
-35.0703301099
 10
1345142.64407
 20
-35.741513113
 10
1375712.90715
 20
-36.4476855086
 10
1406283.17022
 20
-37.1836908457
 10
1436853.43329
 20
-37.9451949535
 10
1467423.69636
 20
-38.7285646083
 10
1497993.95943
 20
-39.5307554926
 10
1528564.2225
 20
-40.349213771
 10
1559134.48558
 20
-41.1817921867
 10
1589704.74865
 20
-42.0266798505
 10
1620275.01172
 20
-42.8823441476
 10
1650845.27479
 20
-43.7474829857
 10
1681415.53786
 20
-44.6209856724
 10
1711985.80094
 20
-45.5019008978
 10
1742556.06401
 20
-46.3894105194
 10
1773126.32708
 20
-47.2828080638
 10
1803696.59015
 20
-48.1814810559
 10
1834266.85322
 20
-49.0848964505
 10
1864837.1163
 20
-49.992588585
 10
1895407.37937
 20
-50.904149181
 10
1925977.64244
 20
-51.8192190159
 10
1956547.90551
 20
-52.7374809614
 10
1987118.16858
 20
-53.6586541416
 10
2017688.43166
 20
-54.582489013
 10
2048258.69473
 20
-55.5087632061
 10
2078828.9578
 20
-56.437277997
 10
2109399.22087
 20
-57.3678553042
 10
2139969.48394
 20
-58.3003351227
 10
2170539.74702
 20
-59.2345733251
 10
2201110.01009
 20
-60.1704397697
 10
2231680.27316
 20
-61.10781667
 10
2262250.53623
 20
-62.0465971824
 10
2292820.7993
 20
-62.986684181
 10
2323391.06238
 20
-63.9279891914
 10
2353961.32545
 20
-64.8704314601
 10
2384531.58852
 20
-65.8139371394
 10
2415101.85159
 20
-66.758438573
 10
2445672.11466
 20
-67.7038736673
 10
2476242.37774
 20
-68.6501853365
 10
2506812.64081
 20
-69.5973210129
 10
2537382.90388
 20
-70.5452322126
 10
2567953.16695
 20
-71.4938741498
 10
2598523.43003
 20
-72.4432053939
 10
2629093.6931
 20
-73.3931875637
 10
2659663.95617
 20
-74.3437850538
 10
2690234.21924
 20
-75.2949647902
 10
2720804.48231
 20
-76.2466960112
 10
2751374.74539
 20
-77.1989500694
 10
2781945.00846
 20
-78.1517002551
 10
2812515.27153
 20
-79.1049216358
 10
2843085.5346
 20
-80.0585909121
 10
2873655.79768
 20
-81.0126862865
 10
2904226.06075
 20
-81.9671873454
 10
2934796.32382
 20
-82.9220749513
 10
2965366.58689
 20
-83.8773311454
 10
2995936.84996
 20
-84.8329390587
 10
3026507.11304
 20
-85.7888828309
  0
LWPOLYLINE
  5
107
330
1F
100
AcDbEntity
  8
main_beam_width
100
AcDbPolyline
 90
100
 70
0
43
0.0
 10
-37.0598629056
 20
-37.0191755192
 10
-36.1241542363
 20
30500.9504716
 10
-35.1907310117
 20
61038.9201187
 10
-34.2597967467
 20
91576.8897658
 10
-33.3315792598
 20
122114.859413
 10
-32.4063343115
 20
152652.82906
 10
-31.4843498932
 20
183190.798707
 10
-30.5659513039
 20
213728.768354
 10
-29.6515071799
 20
244266.738001
 10
-28.7414366831
 20
274804.707648
 10
-27.8362181017
 20
305342.677295
 10
-26.9363991792
 20
335880.646942
 10
-26.042609562
 20
366418.616589
 10
-25.1555758522
 20
396956.586236
 10
-24.2761398658
 20
427494.555883
 10
-23.4052808421
 20
458032.52553
 10
-22.5441425149
 20
488570.495177
 10
-21.6940661535
 20
519108.464824
 10
-20.8566308969
 20
549646.434471
 10
-20.0337029105
 20
580184.404117
 10
-19.2274950603
 20
610722.373764
 10
-18.4406388124
 20
641260.343411
 10
-17.6762697741
 20
671798.313058
 10
-16.938127389
 20
702336.282704
 10
-16.2306673142
 20
732874.252351
 10
-15.5591812016
 20
763412.221997
 10
-14.9299120267
 20
793950.191643
 10
-14.3501427108
 20
824488.16129
 10
-13.8282212049
 20
855026.130936
 10
-13.3734681612
 20
885564.100582
 10
-12.9959001716
 20
916102.070227
 10
-12.7057054953
 20
946640.039873
 10
-12.5124486172
 20
977178.009518
 10
-12.4240667966
 20
1007715.97916
 10
-12.4458394507
 20
1038253.94881
 10
-12.5796000552
 20
1068791.91845
 10
-12.8234429254
 20
1099329.8881
 10
-13.1720277756
 20
1129867.85774
 10
-13.6173752746
 20
1160405.82738
 10
-14.1498995551
 20
1190943.79703
 10
-14.7594089381
 20
1221481.76667
 10
-15.4358963136
 20
1252019.73631
 10
-16.1700581355
 20
1282557.70596
 10
-16.9535669082
 20
1313095.6756
 10
-17.7791605989
 20
1343633.64524
 10
-18.6406158482
 20
1374171.61488
 10
-19.532658524
 20
1404709.58453
 10
-20.4508481342
 20
1435247.55417
 10
-21.3914581023
 20
1465785.52381
 10
-22.3513636047
 20
1496323.49345
 10
-23.3279421475
 20
1526861.4631
 10
-24.3189883018
 20
1557399.43274
 10
-25.3226420583
 20
1587937.40238
 10
-26.3373293768
 20
1618475.37202
 10
-27.361713217
 20
1649013.34167
 10
-28.3946533621
 20
1679551.31131
 10
-29.4351735064
 20
1710089.28095
 10
-30.4824342887
 20
1740627.25059
 10
-31.5357111696
 20
1771165.22023
 10
-32.5943762414
 20
1801703.18988
 10
-33.6578832328
 20
1832241.15952
 10
-34.7257551061
 20
1862779.12916
 10
-35.7975737664
 20
1893317.0988
 10
-36.8729714911
 20
1923855.06844
 10
-37.9516237659
 20
1954393.03809
 10
-39.0332432767
 20
1984931.00773
 10
-40.1175748491
 20
2015468.97737
 10
-41.2043911732
 20
2046006.94701
 10
-42.2934891779
 20
2076544.91665
 10
-43.3846869442
 20
2107082.8863
 10
-44.4778210707
 20
2137620.85594
 10
-45.5727444146
 20
2168158.82558
 10
-46.6693241511
 20
2198696.79522
 10
-47.7674400989
 20
2229234.76486
 10
-48.8669832723
 20
2259772.73451
 10
-49.9678546246
 20
2290310.70415
 10
-51.0699639548
 20
2320848.67379
 10
-52.1732289539
 20
2351386.64343
 10
-53.27757437
 20
2381924.61307
 10
-54.3829312765
 20
2412462.58272
 10
-55.4892364278
 20
2443000.55236
 10
-56.5964316922
 20
2473538.522
 10
-57.70446355
 20
2504076.49164
 10
-58.8132826493
 20
2534614.46128
 10
-59.9228434116
 20
2565152.43093
 10
-61.0331036812
 20
2595690.40057
 10
-62.1440244122
 20
2626228.37021
 10
-63.2555693895
 20
2656766.33985
 10
-64.3677049784
 20
2687304.30949
 10
-65.4803999008
 20
2717842.27914
 10
-66.5936250338
 20
2748380.24878
 10
-67.707353228
 20
2778918.21842
 10
-68.8215591451
 20
2809456.18806
 10
-69.9362191094
 20
2839994.1577
 10
-71.0513109751
 20
2870532.12735
 10
-72.166814005
 20
2901070.09699
 10
-73.2827087613
 20
2931608.06663
 10
-74.3989770056
 20
2962146.03627
 10
-75.5156016085
 20
2992684.00591
 10
-76.632566467
 20
3023221.97556
  0
LWPOLYLINE
  5
108
330
1F
100
AcDbEntity
  8
main_beam_width
100
AcDbPolyline
 90
100
 70
0
43
0.0
 10
37.0574058978
 20
37.0167212089
 10
35.9683827177
 20
30574.2385278
 10
34.8816453323
 20
61111.4603343
 10
33.7973972954
 20
91648.6821409
 10
32.7158664704
 20
122185.903947
 10
31.637308669
 20
152723.125754
 10
30.5620119416
 20
183260.347561
 10
29.4903016552
 20
213797.569367
 10
28.4225465248
 20
244334.791174
 10
27.3591658037
 20
274872.01298
 10
26.3006378868
 20
305409.234787
 10
25.2475106421
 20
335946.456594
 10
24.2004138628
 20
366483.6784
 10
23.1600743232
 20
397020.900207
 10
22.1273340436
 20
427558.122014
 10
21.1031725055
 20
458095.34382
 10
20.0887337305
 20
488632.565627
 10
19.085359332
 20
519169.787434
 10
18.0946288594
 20
549707.009241
 10
17.1184089696
 20
580244.231048
 10
16.1589131155
 20
610781.452854
 10
15.2187734632
 20
641318.674661
 10
14.3011264495
 20
671855.896468
 10
13.4097124922
 20
702393.118275
 10
12.548988373
 20
732930.340083
 10
11.724247011
 20
763467.56189
 10
10.9417327514
 20
794004.783697
 10
10.208729901
 20
824542.005505
 10
9.53358765071
 20
855079.227312
 10
8.92562749406
 20
885616.44912
 10
8.39486611649
 20
916153.670928
 10
7.95149072219
 20
946690.892736
 10
7.60506324981
 20
977228.114544
 10
7.36351681243
 20
1007765.33635
 10
7.2321253689
 20
1038302.55816
 10
7.21271634264
 20
1068839.77997
 10
7.30337836808
 20
1099377.00178
 10
7.49876672724
 20
1129914.22359
 10
7.79089939738
 20
1160451.4454
 10
8.17018958109
 20
1190988.66721
 10
8.62644609695
 20
1221525.88902
 10
9.14966328038
 20
1252063.11083
 10
9.73053952239
 20
1282600.33264
 10
10.3607494108
 20
1313137.55445
 10
11.0330329219
 20
1343674.77626
 10
11.7411685139
 20
1374211.99808
 10
12.4798836354
 20
1404749.21989
 10
13.244739134
 20
1435286.4417
 10
14.0320095509
 20
1465823.66351
 10
14.8385709859
 20
1496360.88532
 10
15.6618017037
 20
1526898.10713
 10
16.4994968971
 20
1557435.32894
 10
17.3497970668
 20
1587972.55075
 10
18.2111285905
 20
1618509.77257
 10
19.0821547719
 20
1649046.99438
 10
19.961735678
 20
1679584.21619
 10
20.8488952377
 20
1710121.438
 10
21.7427942851
 20
1740658.65981
 10
22.6427084433
 20
1771195.88162
 10
23.5480099412
 20
1801733.10344
 10
24.4581526218
 20
1832270.32525
 10
25.3726595445
 20
1862807.54706
 10
26.2911126964
 20
1893344.76887
 10
27.2131444245
 20
1923881.99068
 10
28.1384302744
 20
1954419.21249
 10
29.0666829829
 20
1984956.4343
 10
29.9976474198
 20
2015493.65612
 10
30.9310963133
 20
2046030.87793
 10
31.866826625
 20
2076568.09974
 10
32.8046564647
 20
2107105.32155
 10
33.7444224557
 20
2137642.54336
 10
34.6859774774
 20
2168179.76517
 10
35.6291887239
 20
2198716.98699
 10
36.5739360309
 20
2229254.2088
 10
37.5201104274
 20
2259791.43061
 10
38.4676128799
 20
2290328.65242
 10
39.416353199
 20
2320865.87423
 10
40.3662490861
 20
2351403.09604
 10
41.3172252985
 20
2381940.31786
 10
42.2692129177
 20
2412477.53967
 10
43.2221487057
 20
2443014.76148
 10
44.1759745372
 20
2473551.98329
 10
45.1306368984
 20
2504089.2051
 10
46.0860864428
 20
2534626.42691
 10
47.0422775968
 20
2565163.64873
 10
47.9991682089
 20
2595700.87054
 10
48.9567192371
 20
2626238.09235
 10
49.91489447
 20
2656775.31416
 10
50.873660276
 20
2687312.53597
 10
51.83298538
 20
2717849.75778
 10
52.7928406616
 20
2748386.9796
 10
53.7531989742
 20
2778924.20141
 10
54.7140349813
 20
2809461.42322
 10
55.6753250095
 20
2839998.64503
 10
56.6370469148
 20
2870535.86684
 10
57.5991799617
 20
2901073.08866
 10
58.5617047139
 20
2931610.31047
 10
59.5246029346
 20
2962147.53228
 10
60.4878574956
 20
2992684.75409
 10
61.4514522952
 20
3023221.9759
  0
LWPOLYLINE
  5
109
330
1F
100
AcDbEntity
  8
main_beam_width
100
AcDbPolyline
 90
10
 70
0
43
0.0
 10
-49.9245377318
 20
-49.8697264401
 10
-1795.85426589
 20
-48.0143677559
 10
-3541.78399406
 20
-46.1590118703
 10
-5287.71372222
 20
-44.3036587721
 10
-7033.64345039
 20
-42.4483084503
 10
-8779.57317857
 20
-40.5929608936
 10
-10525.5029067
 20
-38.7376160912
 10
-12271.4326349
 20
-36.8822740319
 10
-14017.3623631
 20
-35.0269347049
 10
-15763.2920913
 20
-33.1715980993
  0
LWPOLYLINE
  5
10a
330
1F
100
AcDbEntity
  8
main_beam_width
100
AcDbPolyline
 90
10
 70
0
43
0.0
 10
49.9207159191
 20
49.8659088231
 10
-1707.22423911
 20
51.8678541298
 10
-3464.36919413
 20
53.8698022719
 10
-5221.51414915
 20
55.8717532377
 10
-6978.65910417
 20
57.8737070161
 10
-8735.80405918
 20
59.8756635957
 10
-10492.9490142
 20
61.8776229653
 10
-12250.0939692
 20
63.8795851135
 10
-14007.2389242
 20
65.8815500295
 10
-15764.3838792
 20
67.883517702
  0
LWPOLYLINE
  5
10b
330
1F
100
AcDbEntity
  8
main_beam_width
100
AcDbPolyline
 90
10
 70
0
43
0.0
 10
-50.5921428611
 20
-50.5365986171
 10
-1796.44673471
 20
-48.6817186959
 10
-3542.30132656
 20
-46.8268414539
 10
-5288.15591841
 20
-44.9719668805
 10
-7034.01051027
 20
-43.1170949651
 10
-8779.86510213
 20
-41.2622256973
 10
-10525.719694
 20
-39.4073590664
 10
-12271.5742859
 20
-37.5524950621
 10
-14017.4288777
 20
-35.6976336741
 10
-15763.2834696
 20
-33.8427748919
  0
LWPOLYLINE
  5
10c
330
1F
100
AcDbEntity
  8
main_beam_width
100
AcDbPolyline
 90
10
 70
0
43
0.0
 10
50.7128925052
 20
50.6572156922
 10
-1706.52085735
 20
52.6597358138
 10
-3463.75460721
 20
54.6622586502
 10
-5220.98835706
 20
56.6647841907
 10
-6978.22210691
 20
58.6673124243
 10
-8735.45585675
 20
60.6698433403
 10
-10492.6896066
 20
62.6723769282
 10
-12249.9233564
 20
64.6749131772
 10
-14007.1571063
 20
66.6774520767
 10
-15764.3908561
 20
68.6799936163
  0
LWPOLYLINE
  5
10d
330
1F
100
AcDbEntity
  8
main_beam_width
100
AcDbPolyline
 90
100
 70
0
43
0.0
 10
3026507.11304
 20
-85.7888828309
 10
2995936.71298
 20
-84.6864286175
 10
2965366.31292
 20
-83.5843124499
 10
2934795.91286
 20
-82.4825526453
 10
2904225.5128
 20
-81.3811688629
 10
2873655.11275
 20
-80.2801822277
 10
2843084.71269
 20
-79.1796154696
 10
2812514.31263
 20
-78.0794930777
 10
2781943.91257
 20
-76.9798414731
 10
2751373.51251
 20
-75.880689202
 10
2720803.11246
 20
-74.7820671523
 10
2690232.7124
 20
-73.6840087977
 10
2659662.31234
 20
-72.5865504721
 10
2629091.91228
 20
-71.4897316795
 10
2598521.51223
 20
-70.3935954453
 10
2567951.11217
 20
-69.2981887144
 10
2537380.71211
 20
-68.2035628045
 10
2506810.31205
 20
-67.1097739234
 10
2476239.91199
 20
-66.0168837603
 10
2445669.51194
 20
-64.9249601646
 10
2415099.11188
 20
-63.8340779273
 10
2384528.71182
 20
-62.7443196831
 10
2353958.31176
 20
-61.6557769543
 10
2323387.9117
 20
-60.5685513663
 10
2292817.51165
 20
-59.482756063
 10
2262247.11159
 20
-58.398517366
 10
2231676.71153
 20
-57.3159767234
 10
2201106.31147
 20
-56.235293011
 10
2170535.91142
 20
-55.1566452583
 10
2139965.51136
 20
-54.0802358949
 10
2109395.1113
 20
-53.0062946325
 10
2078824.71124
 20
-51.9350831301
 10
2048254.31118
 20
-50.8669006287
 10
2017683.91113
 20
-49.8020907925
 10
1987113.51107
 20
-48.7410500606
 10
1956543.11101
 20
-47.6842378993
 10
1925972.71095
 20
-46.6321894624
 10
1895402.3109
 20
-45.585531318
 10
1864831.91084
 20
-44.5450011052
 10
1834261.51078
 20
-43.5114722547
 10
1803691.11072
 20
-42.4859852709
 10
1773120.71067
 20
-41.4697875573
 10
1742550.31061
 20
-40.4643844068
 10
1711979.91055
 20
-39.4716046205
 10
1681409.51049
 20
-38.4936852942
 10
1650839.11044
 20
-37.5333816271
 10
1620268.71038
 20
-36.5941090919
 10
1589698.31032
 20
-35.6801266682
 10
1559127.91026
 20
-34.7967703314
 10
1528557.51021
 20
-33.9507439336
 10
1497987.11015
 20
-33.1504665587
 10
1467416.71009
 20
-32.4064550669
 10
1436846.31004
 20
-31.7316780242
 10
1406275.90998
 20
-31.1417417717
 10
1375705.50992
 20
-30.6546621199
 10
1345135.10987
 20
-30.2898803554
 10
1314564.70981
 20
-30.0662270839
 10
1283994.30976
 20
-29.998903791
 10
1253423.9097
 20
-30.0962555282
 10
1222853.50965
 20
-30.3576904359
 10
1192283.10959
 20
-30.7738345922
 10
1161712.70954
 20
-31.3288361333
 10
1131142.30949
 20
-32.0036348217
 10
1100571.90944
 20
-32.778881614
 10
1070001.50938
 20
-33.6368327994
 10
1039431.10933
 20
-34.5622176928
 10
1008860.70928
 20
-35.5423964005
 10
978290.309228
 20
-36.5671410485
 10
947719.909176
 20
-37.6282723939
 10
917149.509124
 20
-38.7192793922
 10
886579.109073
 20
-39.8349784599
 10
856008.709021
 20
-40.9712301225
 10
825438.30897
 20
-42.1247124185
 10
794867.908918
 20
-43.2927434242
 10
764297.508867
 20
-44.4731436725
 10
733727.108816
 20
-45.6641299143
 10
703156.708764
 20
-46.864233075
 10
672586.308713
 20
-48.0722347298
 10
642015.908662
 20
-49.2871177112
 10
611445.50861
 20
-50.5080275045
 10
580875.108559
 20
-51.7342419024
 10
550304.708508
 20
-52.965147005
 10
519734.308456
 20
-54.2002181213
 10
489163.908405
 20
-55.4390044769
 10
458593.508354
 20
-56.6811168942
 10
428023.108303
 20
-57.926217808
 10
397452.708252
 20
-59.1740131264
 10
366882.3082
 20
-60.4242455585
 10
336311.908149
 20
-61.6766891161
 10
305741.508098
 20
-62.9311445573
 10
275171.108047
 20
-64.1874355933
 10
244600.707996
 20
-65.4454057144
 10
214030.307944
 20
-66.704915523
 10
183459.907893
 20
-67.965840481
 10
152889.507842
 20
-69.2280690013
 10
122319.107791
 20
-70.4915008222
 10
91748.7077398
 20
-71.7560456191
 10
61178.3076886
 20
-73.0216218135
 10
30607.9076375
 20
-74.2881555476
 10
37.5075863153
 20
-75.5555797994
  0
LWPOLYLINE
  5
10e
330
1F
100
AcDbEntity
  8
main_beam_width
100
AcDbPolyline
 90
100
 70
0
43
0.0
 10
3026507.11264
 20
52.9883649336
 10
2995937.73807
 20
51.7124282785
 10
2965368.3635
 20
50.4368296458
 10
2934798.98893
 20
49.161587351
 10
2904229.61436
 20
47.8867210511
 10
2873660.23979
 20
46.6122518688
 10
2843090.86522
 20
45.3382025314
 10
2812521.49065
 20
44.0645975254
 10
2781952.11607
 20
42.7914632687
 10
2751382.7415
 20
41.5188283038
 10
2720813.36693
 20
40.2467235151
 10
2690243.99236
 20
38.9751823721
 10
2659674.61779
 20
37.7042412037
 10
2629105.24322
 20
36.4339395089
 10
2598535.86865
 20
35.164320307
 10
2567966.49408
 20
33.8954305365
 10
2537397.11951
 20
32.6273215075
 10
2506827.74494
 20
31.3600494196
 10
2476258.37037
 20
30.0936759524
 10
2445688.9958
 20
28.8282689448
 10
2415119.62122
 20
27.5639031758
 10
2384550.24665
 20
26.3006612659
 10
2353980.87208
 20
25.0386347221
 10
2323411.49751
 20
23.7779251515
 10
2292842.12294
 20
22.5186456775
 10
2262272.74837
 20
21.2609225978
 10
2231703.3738
 20
20.0048973329
 10
2201133.99923
 20
18.7507287266
 10
2170564.62466
 20
17.4985957711
 10
2139995.25009
 20
16.2487008523
 10
2109425.87552
 20
15.0012736306
 10
2078856.50095
 20
13.7565757044
 10
2048287.12637
 20
12.5149062428
 10
2017717.7518
 20
11.2766088244
 10
1987148.37723
 20
10.0420797855
 10
1956579.00266
 20
8.81177846858
 10
1926009.62809
 20
7.58623987754
 10
1895440.25352
 20
6.36609039759
 10
1864870.87895
 20
5.15206744344
 10
1834301.50438
 20
3.94504416873
 10
1803732.12981
 20
2.74606073363
 10
1773162.75524
 20
1.55636411052
 10
1742593.38067
 20
0.377459049105
 10
1712024.00609
 20
-0.788826338222
 10
1681454.63152
 20
-1.94025583519
 10
1650885.25695
 20
-3.07407537186
 10
1620315.88238
 20
-4.18687093125
 10
1589746.50781
 20
-5.27438541565
 10
1559177.13324
 20
-6.33128527996
 10
1528607.75867
 20
-7.35086979134
 10
1498038.38409
 20
-8.32472381351
 10
1467469.00952
 20
-9.24233534579
 10
1436899.63495
 20
-10.0907415146
 10
1406330.26038
 20
-10.8543420723
 10
1375760.88581
 20
-11.5151266663
 10
1345191.51123
 20
-12.0536570222
 10
1314622.13666
 20
-12.4511007636
 10
1284052.76209
 20
-12.6922480252
 10
1253483.38751
 20
-12.7687390283
 10
1222914.01294
 20
-12.6811476917
 10
1192344.63836
 20
-12.4388314832
 10
1161775.26379
 20
-12.0576309527
 10
1131205.88921
 20
-11.556601177
 10
1100636.51464
 20
-10.9550910105
 10
1070067.14006
 20
-10.2708469707
 10
1039497.76548
 20
-9.51914382917
 10
1008928.39091
 20
-8.71262574666
 10
978359.016329
 20
-7.8615244887
 10
947789.641752
 20
-6.97402260974
 10
917220.267175
 20
-6.05663386808
 10
886650.892598
 20
-5.11454402564
 10
856081.518021
 20
-4.15189428819
 10
825512.143443
 20
-3.17200798758
 10
794942.768866
 20
-2.17756813284
 10
764373.394289
 20
-1.17075505273
 10
733804.019712
 20
-0.153352683364
 10
703234.645134
 20
0.873169349792
 10
672665.270557
 20
1.90759217777
 10
642095.89598
 20
2.94889827263
 10
611526.521402
 20
3.99623282577
 10
580957.146825
 20
5.0488733883
 10
550387.772247
 20
6.10620586066
 10
519818.39767
 20
7.16770538601
 10
489249.023093
 20
8.23292105137
 10
458679.648515
 20
9.30146356276
 10
428110.273938
 20
10.3729952565
 10
397540.89936
 20
11.4472219571
 10
366971.524783
 20
12.5238863026
 10
336402.150205
 20
13.6027622436
 10
305832.775628
 20
14.6836504858
 10
275263.40105
 20
15.7663746948
 10
244694.026473
 20
16.8507783218
 10
214124.651896
 20
17.9367219347
 10
183555.277318
 20
19.0240809655
 10
152985.902741
 20
20.1127438007
 10
122416.528163
 20
21.2026101556
 10
91847.1535856
 20
22.2935896852
 10
61277.7790081
 20
23.3856007928
 10
30708.4044306
 20
24.4785696046
 10
139.029853075
 20
25.5724290843
  0
LWPOLYLINE
  5
10f
330
1F
100
AcDbEntity
  8
main_beam_width
100
AcDbPolyline
 90
10
 70
0
43
0.0
 10
37.0582505349
 20
37.0175649186
 10
46.8679710344
 20
34.2313302378
 10
56.677691534
 20
31.4450955571
 10
66.4874120336
 20
28.6588608765
 10
76.2971325332
 20
25.8726261959
 10
86.1068530328
 20
23.0863915153
 10
95.9165735325
 20
20.3001568348
 10
105.726294032
 20
17.5139221544
 10
115.536014532
 20
14.727687474
 10
125.345735032
 20
11.9414527937
  0
LWPOLYLINE
  5
110
330
1F
100
AcDbEntity
  8
main_beam_width
100
AcDbPolyline
 90
10
 70
0
43
0.0
 10
-37.0590181922
 20
-37.0183317332
 10
-27.2669108261
 20
-39.7991711994
 10
-17.47480346
 20
-42.5800106658
 10
-7.68269609393
 20
-45.3608501321
 10
2.10941127214
 20
-48.1416895985
 10
11.9015186382
 20
-50.922529065
 10
21.6936260042
 20
-53.7033685316
 10
31.4857333702
 20
-56.4842079982
 10
41.2778407363
 20
-59.2650474648
 10
51.0699481022
 20
-62.0458869315
  0
LWPOLYLINE
  5
111
330
1F
100
AcDbEntity
  8
main_beam_width
100
AcDbPolyline
 90
10
 70
0
43
0.0
 10
-15764.2669155
 20
54.9386036272
 10
-14008.5642132
 20
52.9472562951
 10
-12252.8615108
 20
50.9559156552
 10
-10497.1588085
 20
48.9645817387
 10
-8741.45610609
 20
46.9732545771
 10
-6985.75340371
 20
44.9819342021
 10
-5230.05070132
 20
42.9906206457
 10
-3474.34799892
 20
40.9993139397
 10
-1718.64529652
 20
39.0080141166
 10
37.0574058978
 20
37.0167212089
  0
LWPOLYLINE
  5
112
330
1F
100
AcDbEntity
  8
main_beam_width
100
AcDbPolyline
 90
10
 70
0
43
0.0
 10
-15763.4548395
 20
-20.2266499827
 10
-14016.0776199
 20
-22.0924593481
 10
-12268.7004002
 20
-23.9582753421
 10
-10521.3231806
 20
-25.8240979957
 10
-8773.94596096
 20
-27.6899273398
 10
-7026.56874133
 20
-29.5557634058
 10
-5279.19152172
 20
-31.421606225
 10
-3531.8143021
 20
-33.287455829
 10
-1784.4370825
 20
-35.1533122498
 10
-37.0598629056
 20
-37.0191755192
  0
LWPOLYLINE
  5
113
330
1F
100
AcDbEntity
  8
main_beam_width
100
AcDbPolyline
 90
10
 70
0
43
0.0
 10
49.9220297151
 20
49.8672211767
 10
52.6940652517
 20
40.0666506631
 10
55.4661007883
 20
30.2660801494
 10
58.2381363249
 20
20.4655096358
 10
61.0101718615
 20
10.6649391221
 10
63.7822073981
 20
0.864368608501
 10
66.5542429348
 20
-8.93620190513
 10
69.3262784715
 20
-18.7367724187
 10
72.0983140082
 20
-28.5373429324
 10
74.8703495449
 20
-38.337913446
  0
LWPOLYLINE
  5
114
330
1F
100
AcDbEntity
  8
main_beam_width
100
AcDbPolyline
 90
10
 70
0
43
0.0
 10
-49.9232238017
 20
-49.8684139525
 10
-47.1583605548
 20
-59.645225917
 10
-44.3934973079
 20
-69.4220378814
 10
-41.628634061
 20
-79.1988498459
 10
-38.8637708142
 20
-88.9756618104
 10
-36.0989075674
 20
-98.7524737749
 10
-33.3340443206
 20
-108.529285739
 10
-30.5691810738
 20
-118.306097704
 10
-27.8043178271
 20
-128.082909668
 10
-25.0394545804
 20
-137.859721633
  0
LWPOLYLINE
  5
115
330
1F
100
AcDbEntity
  8
main_beam_width
100
AcDbPolyline
 90
10
 70
0
43
0.0
 10
-19462.1202047
 20
231.209612303
 10
-17821.9660883
 20
235.860193239
 10
-16181.8119817
 20
240.514188603
 10
-14541.6578847
 20
245.171603034
 10
-12901.5037974
 20
249.83243336
 10
-11261.3497198
 20
254.49666864
 10
-9621.19565175
 20
259.164290287
 10
-7981.04159328
 20
263.835272275
 10
-6340.88754426
 20
268.509581428
 10
-4700.73350457
 20
273.187177778
  0
LWPOLYLINE
  5
116
330
1F
100
AcDbEntity
  8
main_beam_width
100
AcDbPolyline
 90
10
 70
0
43
0.0
 10
-19462.0946971
 20
222.224165855
 10
-17821.9305309
 20
226.885666032
 10
-16181.766355
 20
231.543751738
 10
-14541.6021694
 20
236.198418336
 10
-12901.4379741
 20
240.849668997
 10
-11261.2737692
 20
245.497514661
 10
-9621.10955461
 20
250.141973918
 10
-7980.9453305
 20
254.783072794
 10
-6340.78109695
 20
259.420844466
 10
-4700.61685407
 20
264.055328902
  0
LWPOLYLINE
  5
117
330
1F
100
AcDbEntity
  8
main_beam_width
100
AcDbPolyline
 90
10
 70
0
43
0.0
 10
37.508942183
 20
-75.5542291979
 10
27.7200818232
 20
-72.7743435409
 10
17.9312214633
 20
-69.9944578838
 10
8.14236110346
 20
-67.2145722268
 10
-1.64649925641
 20
-64.4346865698
 10
-11.4353596163
 20
-61.6548009128
 10
-21.2242199762
 20
-58.8749152558
 10
-31.0130803361
 20
-56.0950295988
 10
-40.801940696
 20
-53.3151439419
 10
-50.5908010559
 20
-50.535258285
  0
LWPOLYLINE
  5
118
330
1F
100
AcDbEntity
  8
main_beam_width
100
AcDbPolyline
 90
10
 70
0
43
0.0
 10
139.031208803
 20
25.5737795463
 10
129.218211622
 20
28.3609769173
 10
119.40521444
 20
31.1481742884
 10
109.592217259
 20
33.9353716596
 10
99.7792200782
 20
36.7225690307
 10
89.9662228971
 20
39.5097664019
 10
80.153225716
 20
42.2969637731
 10
70.3402285349
 20
45.0841611443
 10
60.5272313538
 20
47.8713585155
 10
50.7142341727
 20
50.6585558868
  0
LWPOLYLINE
  5
119
330
1F
100
AcDbEntity
  8
main_beam_width
100
AcDbPolyline
 90
10
 70
0
43
0.0
 10
-4700.59507657
 20
262.553714623
 10
-6340.76153934
 20
258.01568271
 10
-7980.92799795
 20
253.4761852
 10
-9621.09445215
 20
248.935132463
 10
-11261.2609017
 20
244.39242876
 10
-12901.4273462
 20
239.847971883
 10
-14541.5937854
 20
235.301652796
 10
-16181.7602191
 20
230.753355286
 10
-17821.9266467
 20
226.20295564
 10
-19462.0930681
 20
221.650322337
  0
LWPOLYLINE
  5
11a
330
1F
100
AcDbEntity
  8
main_beam_width
100
AcDbPolyline
 90
10
 70
0
43
0.0
 10
-4700.75009061
 20
274.688799348
 10
-6340.90248724
 20
269.914749596
 10
-7981.05488803
 20
265.142165424
 10
-9621.20729323
 20
260.371136459
 10
-11261.3597031
 20
255.601758437
 10
-12901.512118
 20
250.834133565
 10
-14541.6645381
 20
246.068370877
 10
-16181.8169639
 20
241.304586581
 10
-17821.9693957
 20
236.542904391
 10
-19462.1218337
 20
231.783455821
  0
LWPOLYLINE
  5
11b
330
1F
100
AcDbEntity
  8
main_beam_width
100
AcDbPolyline
 90
10
 70
0
43
0.0
 10
-4700.59393324
 20
262.47625082
 10
-6340.76051407
 20
257.943660922
 10
-7980.9270909
 20
253.40966206
 10
-9621.09366348
 20
248.874164669
 10
-11261.2602315
 20
244.337072671
 10
-12901.4267948
 20
239.798283033
 10
-14541.5933528
 20
235.257685315
 10
-16181.7599055
 20
230.715161213
 10
-17821.9264523
 20
226.170584108
 10
-19462.0929929
 20
221.623818633
  0
LWPOLYLINE
  5
11c
330
1F
100
AcDbEntity
  8
main_beam_width
100
AcDbPolyline
 90
10
 70
0
43
0.0
 10
-4700.75108201
 20
274.780711378
 10
-6340.90337911
 20
270.000196428
 10
-7981.05568022
 20
265.221090426
 10
-9621.20798558
 20
260.443482933
 10
-11261.3602955
 20
255.667470026
 10
-12901.5126102
 20
250.893154734
 10
-14541.66493
 20
246.120647497
 10
-16181.8172553
 20
241.350066615
 10
-17821.9695865
 20
236.581538704
 10
-19462.1219238
 20
231.815199128
  0
LWPOLYLINE
  5
11d
330
1F
100
AcDbEntity
  8
main_beam_width
100
AcDbPolyline
 90
10
 70
0
43
0.0
 10
74.869045708
 20
-38.3392122195
 10
76.1423817354
 20
-1154.97225699
 10
77.4157189035
 20
-2271.60530177
 10
78.6890572094
 20
-3388.23834654
 10
79.9623966501
 20
-4504.87139131
 10
81.2357372229
 20
-5621.50443608
 10
82.5090789248
 20
-6738.13748085
 10
83.782421753
 20
-7854.77052561
 10
85.0557657045
 20
-8971.40357038
 10
86.3291107765
 20
-10088.0366151
  0
LWPOLYLINE
  5
11e
330
1F
100
AcDbEntity
  8
main_beam_width
100
AcDbPolyline
 90
10
 70
0
43
0.0
 10
-25.0407585496
 20
-137.861020538
 10
-23.8646058042
 20
-1243.44842801
 10
-22.688454177
 20
-2349.03583548
 10
-21.5123036649
 20
-3454.62324296
 10
-20.3361542652
 20
-4560.21065044
 10
-19.160005975
 20
-5665.79805791
 10
-17.9838587917
 20
-6771.38546539
 10
-16.8077127123
 20
-7876.97287287
 10
-15.6315677342
 20
-8982.56028035
 10
-14.4554238544
 20
-10088.1476878
  0
LWPOLYLINE
  5
11f
330
1F
100
AcDbEntity
  8
main_beam_width
100
AcDbPolyline
 90
10
 70
0
43
0.0
 10
-50.5921428611
 20
-50.5365986171
 10
-1156.08054994
 20
-49.3620742305
 10
-2261.56895703
 20
-48.1875509197
 10
-3367.05736412
 20
-47.013028682
 10
-4472.5457712
 20
-45.8385075147
 10
-5578.03417829
 20
-44.6639874151
 10
-6683.52258538
 20
-43.4894683805
 10
-7789.01099247
 20
-42.3149504083
 10
-8894.49939956
 20
-41.1404334958
 10
-9999.98780666
 20
-39.9659176404
  0
LWPOLYLINE
  5
120
330
1F
100
AcDbEntity
  8
main_beam_width
100
AcDbPolyline
 90
10
 70
0
43
0.0
 10
50.7128925052
 20
50.6572156922
 10
-1066.01914205
 20
51.929828295
 10
-2182.7511766
 20
53.2024419958
 10
-3299.48321116
 20
54.4750567918
 10
-4416.21524571
 20
55.7476726804
 10
-5532.94728026
 20
57.0202896586
 10
-6649.67931481
 20
58.2929077237
 10
-7766.41134936
 20
59.565526873
 10
-8883.1433839
 20
60.8381471037
 10
-9999.87541845
 20
62.1107684131
  0
LWPOLYLINE
  5
121
330
1F
100
AcDbEntity
  8
main_beam_width
100
AcDbPolyline
 90
100
 70
0
43
0.0
 10
-15764.3908433
 20
68.678525383
 10
-15652.6369062
 20
70.7603597711
 10
-15540.8829691
 20
72.8421941701
 10
-15429.129032
 20
74.9240285803
 10
-15317.3750949
 20
77.0058630021
 10
-15205.6211578
 20
79.0876974357
 10
-15093.8672207
 20
81.1695318815
 10
-14982.1132836
 20
83.2513663399
 10
-14870.3593465
 20
85.3332008112
 10
-14758.6054094
 20
87.4150352957
 10
-14646.8514723
 20
89.4968697939
 10
-14535.0975352
 20
91.5787043062
 10
-14423.3435981
 20
93.6605388329
 10
-14311.589661
 20
95.7423733746
 10
-14199.8357239
 20
97.8242079317
 10
-14088.0817868
 20
99.9060425046
 10
-13976.3278497
 20
101.987877094
 10
-13864.5739126
 20
104.0697117
 10
-13752.8199755
 20
106.151546323
 10
-13641.0660385
 20
108.233380965
 10
-13529.3121014
 20
110.315215625
 10
-13417.5581643
 20
112.397050304
 10
-13305.8042272
 20
114.478885003
 10
-13194.0502901
 20
116.560719722
 10
-13082.296353
 20
118.642554463
 10
-12970.5424159
 20
120.724389225
 10
-12858.7884788
 20
122.80622401
 10
-12747.0345417
 20
124.888058818
 10
-12635.2806046
 20
126.969893651
 10
-12523.5266676
 20
129.051728508
 10
-12411.7727305
 20
131.133563392
 10
-12300.0187934
 20
133.215398303
 10
-12188.2648563
 20
135.297233241
 10
-12076.5109192
 20
137.379068209
 10
-11964.7569821
 20
139.460903207
 10
-11853.003045
 20
141.542738236
 10
-11741.249108
 20
143.624573298
 10
-11629.4951709
 20
145.706408393
 10
-11517.7412338
 20
147.788243524
 10
-11405.9872967
 20
149.870078692
 10
-11294.2333596
 20
151.951913897
 10
-11182.4794226
 20
154.033749142
 10
-11070.7254855
 20
156.115584429
 10
-10958.9715484
 20
158.197419759
 10
-10847.2176113
 20
160.279255134
 10
-10735.4636743
 20
162.361090556
 10
-10623.7097372
 20
164.442926028
 10
-10511.9558001
 20
166.524761551
 10
-10400.201863
 20
168.606597128
 10
-10288.447926
 20
170.688432761
 10
-10176.6939889
 20
172.770268454
 10
-10064.9400518
 20
174.852104208
 10
-9953.18611477
 20
176.933940028
 10
-9841.43217771
 20
179.015775916
 10
-9729.67824065
 20
181.097611876
 10
-9617.92430359
 20
183.179447912
 10
-9506.17036653
 20
185.261284027
 10
-9394.41642947
 20
187.343120227
 10
-9282.66249242
 20
189.424956515
 10
-9170.90855536
 20
191.506792896
 10
-9059.15461831
 20
193.588629377
 10
-8947.40068126
 20
195.670465962
 10
-8835.64674422
 20
197.752302658
 10
-8723.89280718
 20
199.834139472
 10
-8612.13887013
 20
201.915976411
 10
-8500.3849331
 20
203.997813482
 10
-8388.63099606
 20
206.079650695
 10
-8276.87705903
 20
208.161488059
 10
-8165.12312201
 20
210.243325584
 10
-8053.36918498
 20
212.32516328
 10
-7941.61524796
 20
214.407001161
 10
-7829.86131095
 20
216.488839239
 10
-7718.10737394
 20
218.570677529
 10
-7606.35343694
 20
220.652516047
 10
-7494.59949994
 20
222.734354811
 10
-7382.84556295
 20
224.81619384
 10
-7271.09162596
 20
226.898033157
 10
-7159.33768898
 20
228.979872786
 10
-7047.58375201
 20
231.061712753
 10
-6935.82981505
 20
233.14355309
 10
-6824.07587809
 20
235.22539383
 10
-6712.32194115
 20
237.307235011
 10
-6600.56800422
 20
239.389076677
 10
-6488.8140673
 20
241.470918878
 10
-6377.06013039
 20
243.552761669
 10
-6265.3061935
 20
245.634605115
 10
-6153.55225662
 20
247.716449291
 10
-6041.79831976
 20
249.798294281
 10
-5930.04438293
 20
251.880140186
 10
-5818.29044611
 20
253.961987122
 10
-5706.53650933
 20
256.043835227
 10
-5594.78257257
 20
258.125684665
 10
-5483.02863585
 20
260.207535629
 10
-5371.27469917
 20
262.289388355
 10
-5259.52076253
 20
264.371243128
 10
-5147.76682595
 20
266.4531003
 10
-5036.01288943
 20
268.534960306
 10
-4924.25895299
 20
270.616823695
 10
-4812.50501665
 20
272.698691166
 10
-4700.75108041
 20
274.780563627
  0
LWPOLYLINE
  5
122
330
1F
100
AcDbEntity
  8
main_beam_width
100
AcDbPolyline
 90
100
 70
0
43
0.0
 10
-15763.2834562
 20
-33.8438172828
 10
-15651.5391177
 20
-30.8506818764
 10
-15539.7947791
 20
-27.857546481
 10
-15428.0504406
 20
-24.8644110968
 10
-15316.3061021
 20
-21.8712757241
 10
-15204.5617635
 20
-18.8781403633
 10
-15092.817425
 20
-15.8850050147
 10
-14981.0730865
 20
-12.8918696786
 10
-14869.3287479
 20
-9.89873435543
 10
-14757.5844094
 20
-6.90559904552
 10
-14645.8400709
 20
-3.91246374927
 10
-14534.0957323
 20
-0.919328467085
 10
-14422.3513938
 20
2.07380680061
 10
-14310.6070553
 20
5.06694205339
 10
-14198.8627167
 20
8.06007729079
 10
-14087.1183782
 20
11.0532125123
 10
-13975.3740397
 20
14.0463477176
 10
-13863.6297011
 20
17.0394829059
 10
-13751.8853626
 20
20.0326180769
 10
-13640.1410241
 20
23.0257532299
 10
-13528.3966855
 20
26.0188883644
 10
-13416.652347
 20
29.0120234797
 10
-13304.9080084
 20
32.0051585753
 10
-13193.1636699
 20
34.9982936504
 10
-13081.4193314
 20
37.9914287045
 10
-12969.6749928
 20
40.9845637366
 10
-12857.9306543
 20
43.9776987462
 10
-12746.1863158
 20
46.9708337323
 10
-12634.4419772
 20
49.9639686942
 10
-12522.6976387
 20
52.957103631
 10
-12410.9533001
 20
55.9502385418
 10
-12299.2089616
 20
58.9433734257
 10
-12187.464623
 20
61.9365082815
 10
-12075.7202845
 20
64.9296431083
 10
-11963.975946
 20
67.9227779049
 10
-11852.2316074
 20
70.9159126703
 10
-11740.4872689
 20
73.9090474031
 10
-11628.7429303
 20
76.902182102
 10
-11516.9985918
 20
79.8953167658
 10
-11405.2542532
 20
82.888451393
 10
-11293.5099147
 20
85.8815859819
 10
-11181.7655761
 20
88.8747205312
 10
-11070.0212376
 20
91.867855039
 10
-10958.276899
 20
94.8609895035
 10
-10846.5325605
 20
97.854123923
 10
-10734.7882219
 20
100.847258295
 10
-10623.0438834
 20
103.840392618
 10
-10511.2995448
 20
106.83352689
 10
-10399.5552062
 20
109.826661108
 10
-10287.8108677
 20
112.819795269
 10
-10176.0665291
 20
115.812929371
 10
-10064.3221906
 20
118.806063411
 10
-9952.577852
 20
121.799197386
 10
-9840.83351344
 20
124.792331292
 10
-9729.08917487
 20
127.785465127
 10
-9617.3448363
 20
130.778598886
 10
-9505.60049773
 20
133.771732565
 10
-9393.85615916
 20
136.76486616
 10
-9282.11182059
 20
139.757999666
 10
-9170.36748201
 20
142.751133079
 10
-9058.62314343
 20
145.744266393
 10
-8946.87880485
 20
148.737399603
 10
-8835.13446627
 20
151.730532701
 10
-8723.39012768
 20
154.723665682
 10
-8611.6457891
 20
157.716798538
 10
-8499.9014505
 20
160.709931261
 10
-8388.15711191
 20
163.703063843
 10
-8276.41277331
 20
166.696196274
 10
-8164.66843471
 20
169.689328544
 10
-8052.9240961
 20
172.682460642
 10
-7941.17975749
 20
175.675592556
 10
-7829.43541888
 20
178.668724273
 10
-7717.69108026
 20
181.661855778
 10
-7605.94674164
 20
184.654987055
 10
-7494.20240301
 20
187.648118086
 10
-7382.45806437
 20
190.641248851
 10
-7270.71372573
 20
193.634379329
 10
-7158.96938708
 20
196.627509495
 10
-7047.22504842
 20
199.620639322
 10
-6935.48070976
 20
202.613768781
 10
-6823.73637108
 20
205.606897836
 10
-6711.9920324
 20
208.60002645
 10
-6600.2476937
 20
211.593154578
 10
-6488.50335499
 20
214.586282173
 10
-6376.75901627
 20
217.579409177
 10
-6265.01467754
 20
220.572535526
 10
-6153.27033878
 20
223.565661146
 10
-6041.52600001
 20
226.558785951
 10
-5929.78166122
 20
229.551909841
 10
-5818.0373224
 20
232.5450327
 10
-5706.29298356
 20
235.53815439
 10
-5594.54864469
 20
238.531274749
 10
-5482.80430578
 20
241.52439358
 10
-5371.05996684
 20
244.51751065
 10
-5259.31562784
 20
247.510625673
 10
-5147.57128879
 20
250.503738297
 10
-5035.82694968
 20
253.496848087
 10
-4924.08261049
 20
256.489954495
 10
-4812.33827121
 20
259.48305682
 10
-4700.59393182
 20
262.476154156
  0
LWPOLYLINE
  5
123
330
1F
100
AcDbEntity
  8
main_beam_width
100
AcDbPolyline
 90
10
 70
0
43
0.0
 10
-19462.1218337
 20
231.783455821
 10
-17821.9626792
 20
236.302172751
 10
-16181.8035319
 20
240.823467693
 10
-14541.6443927
 20
245.347564161
 10
-12901.485262
 20
249.874706758
 10
-11261.3261408
 20
254.405162709
 10
-9621.16702979
 20
258.939223271
 10
-7981.00792992
 20
263.477204925
 10
-6340.84884216
 20
268.019450227
 10
-4700.68976755
 20
272.566328143
  0
LWPOLYLINE
  5
124
330
1F
100
AcDbEntity
  8
main_beam_width
100
AcDbPolyline
 90
10
 70
0
43
0.0
 10
-19462.0930681
 20
221.650322337
 10
-17821.9346932
 20
226.443684358
 10
-16181.7763109
 20
231.234468368
 10
-14541.6179208
 20
236.022450852
 10
-12901.459522
 20
240.807387206
 10
-11261.3011137
 20
245.589010207
 10
-9621.14269527
 20
250.367028596
 10
-7980.98426568
 20
255.141125894
 10
-6340.82582399
 20
259.910959544
 10
-4700.66736915
 20
264.676160579
  0
LWPOLYLINE
  5
125
330
1F
100
AcDbEntity
  8
main_beam_width
100
AcDbPolyline
 90
10
 70
0
43
0.0
 10
-19462.1219238
 20
231.815199128
 10
-17821.9627568
 20
236.326757004
 10
-16181.803597
 20
240.840858097
 10
-14541.644445
 20
245.357733357
 10
-12901.4853017
 20
249.877637144
 10
-11261.3261677
 20
254.40084924
 10
-9621.16704401
 20
258.927676791
 10
-7981.00793153
 20
263.458456098
 10
-6340.84883131
 20
267.993554106
 10
-4700.68974448
 20
272.533369391
  0
LWPOLYLINE
  5
126
330
1F
100
AcDbEntity
  8
main_beam_width
100
AcDbPolyline
 90
10
 70
0
43
0.0
 10
-19462.0929929
 20
221.623818633
 10
-17821.9346434
 20
226.423278965
 10
-16181.7762867
 20
231.220196079
 10
-14541.6179221
 20
236.014339027
 10
-12901.4595489
 20
240.805453447
 10
-11261.3011664
 20
245.593259559
 10
-9621.14277354
 20
250.377450216
 10
-7980.9843695
 20
255.157689116
 10
-6340.8259532
 20
259.933609316
 10
-4700.66752351
 20
264.70481224
  0
LWPOLYLINE
  5
127
330
1F
100
AcDbEntity
  8
main_beam_width
100
AcDbPolyline
 90
100
 70
0
43
0.0
 10
-15764.3838667
 20
67.8820939408
 10
-15652.6299901
 20
69.9710445396
 10
-15540.8761134
 20
72.0599951499
 10
-15429.1222368
 20
74.1489457719
 10
-15317.3683601
 20
76.2378964059
 10
-15205.6144835
 20
78.3268470524
 10
-15093.8606068
 20
80.4157977115
 10
-14982.1067302
 20
82.5047483838
 10
-14870.3528536
 20
84.5936990695
 10
-14758.5989769
 20
86.682649769
 10
-14646.8451003
 20
88.7716004829
 10
-14535.0912236
 20
90.8605512114
 10
-14423.337347
 20
92.9495019551
 10
-14311.5834703
 20
95.0384527143
 10
-14199.8295937
 20
97.1274034896
 10
-14088.0757171
 20
99.2163542815
 10
-13976.3218404
 20
101.30530509
 10
-13864.5679638
 20
103.394255917
 10
-13752.8140871
 20
105.483206762
 10
-13641.0602105
 20
107.572157625
 10
-13529.3063339
 20
109.661108508
 10
-13417.5524572
 20
111.750059411
 10
-13305.7985806
 20
113.839010334
 10
-13194.0447039
 20
115.927961279
 10
-13082.2908273
 20
118.016912245
 10
-12970.5369507
 20
120.105863235
 10
-12858.783074
 20
122.194814248
 10
-12747.0291974
 20
124.283765286
 10
-12635.2753208
 20
126.372716349
 10
-12523.5214441
 20
128.461667438
 10
-12411.7675675
 20
130.550618554
 10
-12300.0136909
 20
132.639569699
 10
-12188.2598142
 20
134.728520873
 10
-12076.5059376
 20
136.817472077
 10
-11964.752061
 20
138.906423312
 10
-11852.9981843
 20
140.995374581
 10
-11741.2443077
 20
143.084325883
 10
-11629.4904311
 20
145.17327722
 10
-11517.7365544
 20
147.262228595
 10
-11405.9826778
 20
149.351180007
 10
-11294.2288012
 20
151.44013146
 10
-11182.4749246
 20
153.529082953
 10
-11070.7210479
 20
155.618034491
 10
-10958.9671713
 20
157.706986073
 10
-10847.2132947
 20
159.795937702
 10
-10735.4594181
 20
161.884889381
 10
-10623.7055415
 20
163.973841111
 10
-10511.9516648
 20
166.062792895
 10
-10400.1977882
 20
168.151744735
 10
-10288.4439116
 20
170.240696634
 10
-10176.690035
 20
172.329648595
 10
-10064.9361584
 20
174.41860062
 10
-9953.18228176
 20
176.507552714
 10
-9841.42840515
 20
178.596504879
 10
-9729.67452854
 20
180.685457119
 10
-9617.92065193
 20
182.774409438
 10
-9506.16677533
 20
184.863361841
 10
-9394.41289873
 20
186.952314331
 10
-9282.65902212
 20
189.041266913
 10
-9170.90514553
 20
191.130219593
 10
-9059.15126893
 20
193.219172377
 10
-8947.39739234
 20
195.30812527
 10
-8835.64351575
 20
197.397078278
 10
-8723.88963916
 20
199.48603141
 10
-8612.13576257
 20
201.574984672
 10
-8500.38188599
 20
203.663938072
 10
-8388.62800941
 20
205.75289162
 10
-8276.87413284
 20
207.841845326
 10
-8165.12025626
 20
209.930799199
 10
-8053.3663797
 20
212.019753252
 10
-7941.61250313
 20
214.108707497
 10
-7829.85862657
 20
216.197661948
 10
-7718.10475002
 20
218.28661662
 10
-7606.35087347
 20
220.375571531
 10
-7494.59699693
 20
222.464526698
 10
-7382.8431204
 20
224.553482142
 10
-7271.08924387
 20
226.642437886
 10
-7159.33536735
 20
228.731393956
 10
-7047.58149083
 20
230.820350379
 10
-6935.82761433
 20
232.909307187
 10
-6824.07373783
 20
234.998264416
 10
-6712.31986135
 20
237.087222106
 10
-6600.56598487
 20
239.176180302
 10
-6488.81210841
 20
241.265139056
 10
-6377.05823197
 20
243.354098426
 10
-6265.30435553
 20
245.44305848
 10
-6153.55047912
 20
247.532019294
 10
-6041.79660273
 20
249.620980959
 10
-5930.04272635
 20
251.709943578
 10
-5818.28885001
 20
253.798907273
 10
-5706.53497368
 20
255.887872187
 10
-5594.7810974
 20
257.976838492
 10
-5483.02722114
 20
260.065806389
 10
-5371.27334493
 20
262.154776124
 10
-5259.51946877
 20
264.243747994
 10
-5147.76559266
 20
266.332722366
 10
-5036.01171662
 20
268.421699694
 10
-4924.25784067
 20
270.51068055
 10
-4812.5039648
 20
272.599665662
 10
-4700.75008906
 20
274.688655977
  0
LWPOLYLINE
  5
128
330
1F
100
AcDbEntity
  8
main_beam_width
100
AcDbPolyline
 90
100
 70
0
43
0.0
 10
-15763.2920782
 20
-33.1726141079
 10
-15651.5476642
 20
-30.1854758552
 10
-15539.8032501
 20
-27.1983376139
 10
-15428.058836
 20
-24.2111993843
 10
-15316.314422
 20
-21.2240611667
 10
-15204.5700079
 20
-18.2369229616
 10
-15092.8255938
 20
-15.2497847691
 10
-14981.0811798
 20
-12.2626465898
 10
-14869.3367657
 20
-9.2755084239
 10
-14757.5923516
 20
-6.28837027188
 10
-14645.8479376
 20
-3.30123213412
 10
-14534.1035235
 20
-0.314094011055
 10
-14422.3591094
 20
2.67304409689
 10
-14310.6146953
 20
5.66018218925
 10
-14198.8702813
 20
8.64732026556
 10
-14087.1258672
 20
11.6344583253
 10
-13975.3814531
 20
14.621596368
 10
-13863.637039
 20
17.6087343931
 10
-13751.892625
 20
20.5958724
 10
-13640.1482109
 20
23.5830103882
 10
-13528.4037968
 20
26.5701483571
 10
-13416.6593827
 20
29.557286306
 10
-13304.9149687
 20
32.5444242342
 10
-13193.1705546
 20
35.5315621411
 10
-13081.4261405
 20
38.5187000259
 10
-12969.6817264
 20
41.5058378879
 10
-12857.9373124
 20
44.4929757263
 10
-12746.1928983
 20
47.4801135402
 10
-12634.4484842
 20
50.4672513289
 10
-12522.7040701
 20
53.4543890913
 10
-12410.959656
 20
56.4415268266
 10
-12299.215242
 20
59.4286645337
 10
-12187.4708279
 20
62.4158022116
 10
-12075.7264138
 20
65.4029398592
 10
-11963.9819997
 20
68.3900774753
 10
-11852.2375856
 20
71.3772150587
 10
-11740.4931715
 20
74.3643526082
 10
-11628.7487575
 20
77.3514901223
 10
-11517.0043434
 20
80.3386275996
 10
-11405.2599293
 20
83.3257650388
 10
-11293.5155152
 20
86.312902438
 10
-11181.7711011
 20
89.3000397958
 10
-11070.026687
 20
92.2871771103
 10
-10958.2822729
 20
95.2743143797
 10
-10846.5378588
 20
98.261451602
 10
-10734.7934447
 20
101.248588775
 10
-10623.0490306
 20
104.235725897
 10
-10511.3046166
 20
107.222862965
 10
-10399.5602025
 20
110.209999976
 10
-10287.8157884
 20
113.197136929
 10
-10176.0713743
 20
116.18427382
 10
-10064.3269602
 20
119.171410646
 10
-9952.58254605
 20
122.158547404
 10
-9840.83813195
 20
125.145684091
 10
-9729.09371784
 20
128.132820702
 10
-9617.34930374
 20
131.119957235
 10
-9505.60488963
 20
134.107093684
 10
-9393.86047552
 20
137.094230046
 10
-9282.1160614
 20
140.081366315
 10
-9170.37164729
 20
143.068502487
 10
-9058.62723317
 20
146.055638555
 10
-8946.88281905
 20
149.042774514
 10
-8835.13840492
 20
152.029910357
 10
-8723.3939908
 20
155.017046077
 10
-8611.64957667
 20
158.004181667
 10
-8499.90516254
 20
160.991317119
 10
-8388.1607484
 20
163.978452423
 10
-8276.41633426
 20
166.965587569
 10
-8164.67192012
 20
169.952722548
 10
-8052.92750597
 20
172.939857347
 10
-7941.18309182
 20
175.926991954
 10
-7829.43867766
 20
178.914126354
 10
-7717.6942635
 20
181.901260534
 10
-7605.94984934
 20
184.888394476
 10
-7494.20543516
 20
187.87552816
 10
-7382.46102099
 20
190.862661568
 10
-7270.7166068
 20
193.849794676
 10
-7158.97219261
 20
196.836927458
 10
-7047.22777841
 20
199.824059887
 10
-6935.4833642
 20
202.811191931
 10
-6823.73894998
 20
205.798323554
 10
-6711.99453575
 20
208.785454716
 10
-6600.25012151
 20
211.772585372
 10
-6488.50570725
 20
214.759715471
 10
-6376.76129298
 20
217.746844953
 10
-6265.0168787
 20
220.733973752
 10
-6153.2724644
 20
223.72110179
 10
-6041.52805008
 20
226.708228978
 10
-5929.78363574
 20
229.695355212
 10
-5818.03922137
 20
232.682480369
 10
-5706.29480698
 20
235.669604307
 10
-5594.55039255
 20
238.656726855
 10
-5482.80597809
 20
241.643847811
 10
-5371.06156359
 20
244.630966929
 10
-5259.31714904
 20
247.618083912
 10
-5147.57273443
 20
250.605198393
 10
-5035.82831975
 20
253.592309918
 10
-4924.083905
 20
256.579417916
 10
-4812.33949015
 20
259.566521658
 10
-4700.59507518
 20
262.553620197
  0
LWPOLYLINE
  5
129
330
1F
100
AcDbEntity
  8
main_beam_width
100
AcDbPolyline
 90
100
 70
0
43
0.0
 10
61.4514522952
 20
3023221.9759
 10
60.3494078062
 20
2992684.88388
 10
59.2477056625
 20
2962147.79186
 10
58.1463643392
 20
2931610.69983
 10
57.0454036584
 20
2901073.60781
 10
55.9448449144
 20
2870536.51579
 10
54.8447110116
 20
2839999.42377
 10
53.7450266195
 20
2809462.33174
 10
52.6458183444
 20
2778925.23972
 10
51.5471149225
 20
2748388.1477
 10
50.4489474364
 20
2717851.05568
 10
49.3513495573
 20
2687313.96365
 10
48.2543578191
 20
2656776.87163
 10
47.1580119268
 20
2626239.77961
 10
46.0623551057
 20
2595702.68759
 10
44.9674344973
 20
2565165.59556
 10
43.87330161
 20
2534628.50354
 10
42.7800128318
 20
2504091.41152
 10
41.6876300173
 20
2473554.3195
 10
40.5962211605
 20
2443017.22747
 10
39.5058611686
 20
2412480.13545
 10
38.4166327534
 20
2381943.04343
 10
37.3286274648
 20
2351405.9514
 10
36.2419468892
 20
2320868.85938
 10
35.1567040466
 20
2290331.76736
 10
34.0730250244
 20
2259794.67534
 10
32.9910508957
 20
2229257.58331
 10
31.9109399798
 20
2198720.49129
 10
30.8328705183
 20
2168183.39927
 10
29.7570438563
 20
2137646.30725
 10
28.6836882407
 20
2107109.21522
 10
27.6130633783
 20
2076572.1232
 10
26.5454659303
 20
2046035.03118
 10
25.4812361726
 20
2015497.93916
 10
24.4207661089
 20
1984960.84713
 10
23.3645094106
 20
1954423.75511
 10
22.3129936632
 20
1923886.66309
 10
21.2668355412
 20
1893349.57107
 10
20.2267597271
 20
1862812.47904
 10
19.1936226364
 20
1832275.38702
 10
18.168442351
 20
1801738.295
 10
17.1524366032
 20
1771201.20298
 10
16.1470712427
 20
1740664.11095
 10
15.1541223773
 20
1710127.01893
 10
14.1757563527
 20
1679589.92691
 10
13.2146329135
 20
1649052.83489
 10
12.2740382067
 20
1618515.74287
 10
11.3580554884
 20
1587978.65084
 10
10.4717818156
 20
1557441.55882
 10
9.62159720414
 20
1526904.4668
 10
8.81548574544
 20
1496367.37478
 10
8.06339066059
 20
1465830.28276
 10
7.37754882165
 20
1435293.19073
 10
6.77268547283
 20
1404756.09871
 10
6.26585611949
 20
1374219.00669
 10
5.87563312842
 20
1343681.91467
 10
5.62035119267
 20
1313144.82265
 10
5.51540696522
 20
1282607.73063
 10
5.57020560668
 20
1252070.63861
 10
5.78593120108
 20
1221533.54659
 10
6.15524618813
 20
1190996.45457
 10
6.66408226622
 20
1160459.36255
 10
7.29460117407
 20
1129922.27054
 10
8.0280784702
 20
1099385.17852
 10
8.84693331961
 20
1068848.0865
 10
9.73577372178
 20
1038310.99448
 10
10.6816994675
 20
1007773.90246
 10
11.6741774308
 20
977236.810448
 10
12.7047295913
 20
946699.71843
 10
13.7665760319
 20
916162.626413
 10
14.8543017731
 20
885625.534396
 10
15.9635730401
 20
855088.442379
 10
17.0909068644
 20
824551.350362
 10
18.2334887485
 20
794014.258345
 10
19.3890302875
 20
763477.166328
 10
20.5556586549
 20
732940.074311
 10
21.7318309386
 20
702402.982294
 10
22.9162676351
 20
671865.890277
 10
24.1079008385
 20
641328.798261
 10
25.3058336913
 20
610791.706244
 10
26.5093084792
 20
580254.614227
 10
27.7176813816
 20
549717.52221
 10
28.9304023722
 20
519180.430193
 10
30.1469991205
 20
488643.338177
 10
31.3670640233
 20
458106.24616
 10
32.5902436934
 20
427569.154143
 10
33.8162303937
 20
397032.062126
 10
35.0447550163
 20
366494.97011
 10
36.2755812966
 20
335957.878093
 10
37.5085010226
 20
305420.786076
 10
38.7433300459
 20
274883.694059
 10
39.979904946
 20
244346.602043
 10
41.2180802279
 20
213809.510026
 10
42.4577259562
 20
183272.418009
 10
43.6987257514
 20
152735.325992
 10
44.940975084
 20
122198.233976
 10
46.1843798174
 20
91661.141959
 10
47.4288549595
 20
61124.0499422
 10
48.6743235872
 20
30586.9579255
 10
49.9207159191
 20
49.8659088234
  0
LWPOLYLINE
  5
12a
330
1F
100
AcDbEntity
  8
main_beam_width
100
AcDbPolyline
 90
100
 70
0
43
0.0
 10
-76.632566467
 20
3023221.97556
 10
-75.3771385099
 20
2992683.87611
 10
-74.1220529213
 20
2962145.77667
 10
-72.8673281781
 20
2931607.67722
 10
-71.6129841047
 20
2901069.57778
 10
-70.3590419974
 20
2870531.47833
 10
-69.1055247634
 20
2839993.37889
 10
-67.8524570747
 20
2809455.27944
 10
-66.5998655408
 20
2778917.18
 10
-65.3477789014
 20
2748379.08055
 10
-64.0962282427
 20
2717840.98111
 10
-62.8452472403
 20
2687302.88166
 10
-61.5948724325
 20
2656764.78222
 10
-60.3451435297
 20
2626226.68277
 10
-59.0961037629
 20
2595688.58333
 10
-57.8478002802
 20
2565150.48388
 10
-56.6002845972
 20
2534612.38444
 10
-55.3536131101
 20
2504074.28499
 10
-54.1078476829
 20
2473536.18555
 10
-52.8630563202
 20
2442998.0861
 10
-51.6193139408
 20
2412459.98666
 10
-50.3767032703
 20
2381921.88721
 10
-49.1353158739
 20
2351383.78777
 10
-47.8952533556
 20
2320845.68832
 10
-46.6566287557
 20
2290307.58888
 10
-45.4195681851
 20
2259769.48943
 10
-44.1842127436
 20
2229231.38999
 10
-42.9507207819
 20
2198693.29054
 10
-41.7192705781
 20
2168155.1911
 10
-40.4900635197
 20
2137617.09165
 10
-39.2633279036
 20
2107078.99221
 10
-38.0393234953
 20
2076540.89277
 10
-36.818347026
 20
2046002.79332
 10
-35.6007388544
 20
2015464.69388
 10
-34.3868910837
 20
1984926.59443
 10
-33.1772575047
 20
1954388.49499
 10
-31.9723658473
 20
1923850.39554
 10
-30.772832962
 20
1893312.2961
 10
-29.5793837463
 20
1862774.19665
 10
-28.3928748809
 20
1832236.09721
 10
-27.2143247763
 20
1801697.99776
 10
-26.044951575
 20
1771159.89832
 10
-24.8862216419
 20
1740621.79887
 10
-23.7399117364
 20
1710083.69943
 10
-22.6081890328
 20
1679545.59998
 10
-21.4937143357
 20
1649007.50054
 10
-20.3997751538
 20
1618469.40109
 10
-19.3304564961
 20
1587931.30164
 10
-18.2908576746
 20
1557393.2022
 10
-17.2873615893
 20
1526855.10275
 10
-16.3279559719
 20
1496317.00331
 10
-15.4225885211
 20
1465778.90386
 10
-14.5835013685
 20
1435240.80442
 10
-13.8254254474
 20
1404702.70497
 10
-13.1654215124
 20
1374164.60552
 10
-12.6220651848
 20
1343626.50608
 10
-12.2136903274
 20
1313088.40663
 10
-11.9556868621
 20
1282550.30718
 10
-11.8574471472
 20
1252012.20774
 10
-11.9201387842
 20
1221474.10829
 10
-12.1364082081
 20
1190936.00884
 10
-12.4921752823
 20
1160397.90939
 10
-12.9695955649
 20
1129859.80994
 10
-13.5499433916
 20
1099321.71049
 10
-14.2156399441
 20
1068783.61104
 10
-14.9512968061
 20
1038245.51159
 10
-15.7440177617
 20
1007707.41214
 10
-16.5832734528
 20
977169.312692
 10
-17.4605891332
 20
946631.213242
 10
-18.369187606
 20
916093.113792
 10
-19.3036560967
 20
885555.014341
 10
-20.2596625941
 20
855016.914891
 10
-21.233725533
 20
824478.815441
 10
-22.2230315309
 20
793940.71599
 10
-23.22529307
 20
763402.61654
 10
-24.2386380327
 20
732864.517089
 10
-25.2615240758
 20
702326.417639
 10
-26.2926721548
 20
671788.318188
 10
-27.3310147365
 20
641250.218738
 10
-28.3756552678
 20
610712.119287
 10
-29.425836284
 20
580174.019836
 10
-30.4809141712
 20
549635.920386
 10
-31.5403390743
 20
519097.820935
 10
-32.6036388066
 20
488559.721485
 10
-33.670405885
 20
458021.622034
 10
-34.7402870242
 20
427483.522583
 10
-35.8129745733
 20
396945.423133
 10
-36.8881994978
 20
366407.323682
 10
-37.9657255965
 20
335869.224231
 10
-39.0453447114
 20
305331.124781
 10
-40.1268727409
 20
274793.02533
 10
-41.2101463054
 20
244254.925879
 10
-42.2950199449
 20
213716.826428
 10
-43.3813637551
 20
183178.726978
 10
-44.4690613837
 20
152640.627527
 10
-45.5580083247
 20
122102.528076
 10
-46.6481104628
 20
91564.4286257
 10
-47.7392828244
 20
61026.329175
 10
-48.831448503
 20
30488.2297243
 10
-49.9245377318
 20
-49.8697264397
  0
LWPOLYLINE
  5
12b
330
1F
100
AcDbEntity
  8
main_beam_width
100
AcDbPolyline
 90
100
 70
0
43
0.0
 10
-4700.61685325
 20
264.055271727
 10
-4812.36269332
 20
261.183814704
 10
-4924.10853311
 20
258.312345442
 10
-5035.85437267
 20
255.44086614
 10
-5147.60021205
 20
252.5693785
 10
-5259.34605126
 20
249.697883862
 10
-5371.09189034
 20
246.82638329
 10
-5482.8377293
 20
243.954877645
 10
-5594.58356817
 20
241.083367629
 10
-5706.32940695
 20
238.211853819
 10
-5818.07524565
 20
235.340336697
 10
-5929.82108429
 20
232.468816663
 10
-6041.56692287
 20
229.597294059
 10
-6153.31276139
 20
226.725769174
 10
-6265.05859988
 20
223.854242253
 10
-6376.80443832
 20
220.982713511
 10
-6488.55027672
 20
218.111183131
 10
-6600.29611509
 20
215.239651274
 10
-6712.04195342
 20
212.368118078
 10
-6823.78779174
 20
209.496583668
 10
-6935.53363002
 20
206.625048151
 10
-7047.27946828
 20
203.753511622
 10
-7159.02530653
 20
200.881974168
 10
-7270.77114475
 20
198.010435863
 10
-7382.51698295
 20
195.138896776
 10
-7494.26282114
 20
192.267356966
 10
-7606.00865931
 20
189.39581649
 10
-7717.75449747
 20
186.524275394
 10
-7829.50033562
 20
183.652733726
 10
-7941.24617375
 20
180.781191523
 10
-8052.99201188
 20
177.909648824
 10
-8164.73784999
 20
175.038105662
 10
-8276.48368809
 20
172.166562066
 10
-8388.22952618
 20
169.295018066
 10
-8499.97536427
 20
166.423473685
 10
-8611.72120234
 20
163.551928949
 10
-8723.46704041
 20
160.680383877
 10
-8835.21287847
 20
157.808838491
 10
-8946.95871653
 20
154.937292807
 10
-9058.70455458
 20
152.065746845
 10
-9170.45039262
 20
149.194200617
 10
-9282.19623066
 20
146.322654141
 10
-9393.94206869
 20
143.451107428
 10
-9505.68790671
 20
140.579560491
 10
-9617.43374474
 20
137.708013342
 10
-9729.17958275
 20
134.836465992
 10
-9840.92542077
 20
131.964918451
 10
-9952.67125877
 20
129.093370728
 10
-10064.4170968
 20
126.221822832
 10
-10176.1629348
 20
123.350274772
 10
-10287.9087728
 20
120.478726555
 10
-10399.6546108
 20
117.607178188
 10
-10511.4004488
 20
114.735629678
 10
-10623.1462867
 20
111.864081033
 10
-10734.8921247
 20
108.992532257
 10
-10846.6379627
 20
106.120983356
 10
-10958.3838007
 20
103.249434336
 10
-11070.1296387
 20
100.377885203
 10
-11181.8754766
 20
97.5063359592
 10
-11293.6213146
 20
94.634786611
 10
-11405.3671526
 20
91.7632371623
 10
-11517.1129906
 20
88.891687617
 10
-11628.8588285
 20
86.020137979
 10
-11740.6046665
 20
83.1485882519
 10
-11852.3505044
 20
80.2770384391
 10
-11964.0963424
 20
77.4054885439
 10
-12075.8421804
 20
74.5339385695
 10
-12187.5880183
 20
71.6623885187
 10
-12299.3338563
 20
68.7908383944
 10
-12411.0796942
 20
65.9192881992
 10
-12522.8255322
 20
63.0477379357
 10
-12634.5713701
 20
60.1761876062
 10
-12746.3172081
 20
57.3046372132
 10
-12858.063046
 20
54.4330867588
 10
-12969.808884
 20
51.5615362451
 10
-13081.5547219
 20
48.689985674
 10
-13193.3005598
 20
45.8184350476
 10
-13305.0463978
 20
42.9468843677
 10
-13416.7922357
 20
40.075333636
 10
-13528.5380737
 20
37.2037828541
 10
-13640.2839116
 20
34.3322320238
 10
-13752.0297495
 20
31.4606811464
 10
-13863.7755875
 20
28.5891302236
 10
-13975.5214254
 20
25.7175792567
 10
-14087.2672633
 20
22.846028247
 10
-14199.0131013
 20
19.9744771959
 10
-14310.7589392
 20
17.1029261046
 10
-14422.5047771
 20
14.2313749744
 10
-14534.2506151
 20
11.3598238062
 10
-14645.996453
 20
8.48827260139
 10
-14757.7422909
 20
5.61672136086
 10
-14869.4881289
 20
2.74517008568
 10
-14981.2339668
 20
-0.126381223169
 10
-15092.9798047
 20
-2.99793256474
 10
-15204.7256426
 20
-5.86948393811
 10
-15316.4714806
 20
-8.74103534242
 10
-15428.2173185
 20
-11.6125867768
 10
-15539.9631564
 20
-14.4841382405
 10
-15651.7089943
 20
-17.3556897326
 10
-15763.4548323
 20
-20.2272412525
  0
LWPOLYLINE
  5
12c
330
1F
100
AcDbEntity
  8
main_beam_width
100
AcDbPolyline
 90
100
 70
0
43
0.0
 10
-4700.73350369
 20
273.187100293
 10
-4812.48636447
 20
270.982478846
 10
-4924.23922553
 20
268.777869638
 10
-5035.99208681
 20
266.573270471
 10
-5147.74494829
 20
264.368679641
 10
-5259.49780992
 20
262.164095811
 10
-5371.25067168
 20
259.959517915
 10
-5483.00353357
 20
257.754945091
 10
-5594.75639555
 20
255.550376639
 10
-5706.50925762
 20
253.345811981
 10
-5818.26211976
 20
251.141250636
 10
-5930.01498197
 20
248.936692202
 10
-6041.76784424
 20
246.732136338
 10
-6153.52070656
 20
244.527582756
 10
-6265.27356892
 20
242.32303121
 10
-6377.02643133
 20
240.118481485
 10
-6488.77929377
 20
237.913933397
 10
-6600.53215625
 20
235.709386788
 10
-6712.28501876
 20
233.504841516
 10
-6824.03788129
 20
231.30029746
 10
-6935.79074385
 20
229.09575451
 10
-7047.54360644
 20
226.891212572
 10
-7159.29646904
 20
224.68667156
 10
-7271.04933167
 20
222.482131398
 10
-7382.80219431
 20
220.277592019
 10
-7494.55505697
 20
218.073053362
 10
-7606.30791964
 20
215.868515372
 10
-7718.06078233
 20
213.663978001
 10
-7829.81364503
 20
211.459441203
 10
-7941.56650774
 20
209.254904939
 10
-8053.31937047
 20
207.050369172
 10
-8165.0722332
 20
204.845833868
 10
-8276.82509594
 20
202.641298997
 10
-8388.5779587
 20
200.436764531
 10
-8500.33082146
 20
198.232230446
 10
-8612.08368423
 20
196.027696716
 10
-8723.83654701
 20
193.823163321
 10
-8835.58940979
 20
191.618630242
 10
-8947.34227258
 20
189.414097459
 10
-9059.09513538
 20
187.209564955
 10
-9170.84799819
 20
185.005032716
 10
-9282.600861
 20
182.800500727
 10
-9394.35372381
 20
180.595968974
 10
-9506.10658663
 20
178.391437445
 10
-9617.85944946
 20
176.186906127
 10
-9729.61231229
 20
173.982375011
 10
-9841.36517512
 20
171.777844087
 10
-9953.11803796
 20
169.573313343
 10
-10064.8709008
 20
167.368782773
 10
-10176.6237636
 20
165.164252367
 10
-10288.3766265
 20
162.959722119
 10
-10400.1294893
 20
160.755192019
 10
-10511.8823522
 20
158.550662063
 10
-10623.6352151
 20
156.346132242
 10
-10735.3880779
 20
154.141602552
 10
-10847.1409408
 20
151.937072987
 10
-10958.8938037
 20
149.732543541
 10
-11070.6466665
 20
147.528014209
 10
-11182.3995294
 20
145.323484986
 10
-11294.1523923
 20
143.118955868
 10
-11405.9052552
 20
140.914426851
 10
-11517.658118
 20
138.709897931
 10
-11629.4109809
 20
136.505369103
 10
-11741.1638438
 20
134.300840364
 10
-11852.9167067
 20
132.096311711
 10
-11964.6695696
 20
129.89178314
 10
-12076.4224325
 20
127.687254649
 10
-12188.1752953
 20
125.482726233
 10
-12299.9281582
 20
123.278197892
 10
-12411.6810211
 20
121.073669621
 10
-12523.433884
 20
118.869141419
 10
-12635.1867469
 20
116.664613282
 10
-12746.9396098
 20
114.46008521
 10
-12858.6924727
 20
112.255557198
 10
-12970.4453356
 20
110.051029246
 10
-13082.1981985
 20
107.846501351
 10
-13193.9510614
 20
105.641973512
 10
-13305.7039243
 20
103.437445726
 10
-13417.4567872
 20
101.232917992
 10
-13529.2096502
 20
99.0283903077
 10
-13640.9625131
 20
96.8238626722
 10
-13752.715376
 20
94.6193350837
 10
-13864.4682389
 20
92.4148075407
 10
-13976.2211018
 20
90.2102800418
 10
-14087.9739647
 20
88.0057525856
 10
-14199.7268276
 20
85.8012251709
 10
-14311.4796905
 20
83.5966977963
 10
-14423.2325535
 20
81.3921704608
 10
-14534.9854164
 20
79.1876431631
 10
-14646.7382793
 20
76.9831159021
 10
-14758.4911422
 20
74.7785886769
 10
-14870.2440051
 20
72.5740614862
 10
-14981.996868
 20
70.3695343293
 10
-15093.749731
 20
68.165007205
 10
-15205.5025939
 20
65.9604801126
 10
-15317.2554568
 20
63.7559530511
 10
-15429.0083197
 20
61.5514260197
 10
-15540.7611827
 20
59.3468990176
 10
-15652.5140456
 20
57.1423720439
 10
-15764.2669085
 20
54.937845098
  0
LWPOLYLINE
  5
12d
330
1F
100
AcDbEntity
  8
main_beam_width
100
AcDbPolyline
 90
10
 70
0
43
0.0
 10
50.7142341727
 20
50.6585558868
 10
53.4863250609
 20
40.8577953155
 10
56.2584159491
 20
31.0570347443
 10
59.0305068374
 20
21.2562741731
 10
61.8025977256
 20
11.4555136018
 10
64.5746886139
 20
1.65475303062
 10
67.3467795022
 20
-8.1460075406
 10
70.1188703906
 20
-17.9467681118
 10
72.8909612789
 20
-27.747528683
 10
75.6630521673
 20
-37.5482892542
  0
LWPOLYLINE
  5
12e
330
1F
100
AcDbEntity
  8
main_beam_width
100
AcDbPolyline
 90
10
 70
0
43
0.0
 10
-50.5908010559
 20
-50.535258285
 10
-47.8259844507
 20
-60.3119100891
 10
-45.0611678456
 20
-70.0885618932
 10
-42.2963512406
 20
-79.8652136972
 10
-39.5315346355
 20
-89.6418655013
 10
-36.7667180305
 20
-99.4185173054
 10
-34.0019014254
 20
-109.195169109
 10
-31.2370848205
 20
-118.971820914
 10
-28.4722682155
 20
-128.748472718
 10
-25.7074516105
 20
-138.525124522
  0
LWPOLYLINE
  5
12f
330
1F
100
AcDbEntity
  8
main_beam_width
100
AcDbPolyline
 90
10
 70
0
43
0.0
 10
-21443.8554897
 20
-56.551092823
 10
-21440.5155387
 20
-56.7028417041
 10
-21437.1755877
 20
-56.854590552
 10
-21433.8356367
 20
-57.0063393666
 10
-21430.4956857
 20
-57.1580881478
 10
-21427.1557347
 20
-57.3098368958
 10
-21423.8157837
 20
-57.4615856104
 10
-21420.4758328
 20
-57.6133342917
 10
-21417.1358818
 20
-57.7650829397
 10
-21413.7959308
 20
-57.9168315543
  0
LWPOLYLINE
  5
130
330
1F
100
AcDbEntity
  8
main_beam_width
100
AcDbPolyline
 90
10
 70
0
43
0.0
 10
-21444.2466659
 20
-61.8104827023
 10
-21440.8964741
 20
-61.9622783622
 10
-21437.5462823
 20
-62.1140740556
 10
-21434.1960905
 20
-62.2658697825
 10
-21430.8458988
 20
-62.417665543
 10
-21427.495707
 20
-62.5694613369
 10
-21424.1455152
 20
-62.7212571644
 10
-21420.7953234
 20
-62.8730530254
 10
-21417.4451317
 20
-63.0248489199
 10
-21414.0949399
 20
-63.176644848
  0
LWPOLYLINE
  5
131
330
1F
100
AcDbEntity
  8
main_beam_width
100
AcDbPolyline
 90
10
 70
0
43
0.0
 10
-27224.6087709
 20
130.328899191
 10
-26582.303229
 20
109.552762675
 10
-25939.9975898
 20
88.7796329038
 10
-25297.691854
 20
68.0094887805
 10
-24655.3860226
 20
47.2422988919
 10
-24013.080097
 20
26.4780220522
 10
-23370.7740788
 20
5.71660800009
 10
-22728.4679699
 20
-15.0420017825
 10
-22086.1617724
 20
-35.797873156
 10
-21443.8554886
 20
-56.5510783465
  0
LWPOLYLINE
  5
132
330
1F
100
AcDbEntity
  8
main_beam_width
100
AcDbPolyline
 90
10
 70
0
43
0.0
 10
-27229.0258218
 20
125.462477426
 10
-26586.2722033
 20
104.666083797
 10
-25943.5186821
 20
83.8666791328
 10
-25300.7652577
 20
63.064284515
 10
-24658.0119291
 20
42.2589313737
 10
-24015.2586947
 20
21.4506609411
 10
-23372.5055532
 20
0.639523553545
 10
-22729.7525024
 20
-20.1744221704
 10
-22086.9995404
 20
-40.9911102469
 10
-21444.2466648
 20
-61.8104683068
  0
LWPOLYLINE
  5
133
330
1F
100
AcDbEntity
  8
main_beam_width
100
AcDbPolyline
 90
15
 70
0
43
0.0
 10
-27261.4383318
 20
134.564951667
 10
-27279.3142113
 20
2020.35817773
 10
-27297.2192362
 20
3906.1511278
 10
-27315.1517502
 20
5791.94381757
 10
-27333.1093897
 20
7677.73626942
 10
-27351.0894035
 20
9563.52850941
 10
-27369.0889443
 20
11449.3205645
 10
-27387.1052822
 20
13335.1124605
 10
-27405.1359332
 20
15220.904221
 10
-27423.1787156
 20
17106.6958666
 10
-27441.2317584
 20
18992.4874151
 10
-27459.293481
 20
20878.2788813
 10
-27477.3625608
 20
22764.0702779
 10
-27495.4378958
 20
24649.8616153
 10
-27513.5185699
 20
26535.6529021
  0
LWPOLYLINE
  5
134
330
1F
100
AcDbEntity
  8
main_beam_width
100
AcDbPolyline
 90
15
 70
0
43
0.0
 10
-27256.7056583
 20
139.342652292
 10
-27274.5405673
 20
2024.79215548
 10
-27292.3463442
 20
3910.24193453
 10
-27310.1246466
 20
5795.69197374
 10
-27327.8778377
 20
7681.14225074
 10
-27345.6086677
 20
9566.59273948
 10
-27363.3199824
 20
11452.043413
 10
-27381.0145097
 20
13337.4942455
 10
-27398.6947321
 20
15222.9452135
 10
-27416.3628297
 20
17108.3962962
 10
-27434.0206721
 20
18993.8474761
 10
-27451.6698388
 20
20879.2987381
 10
-27469.3116517
 20
22764.7500698
 10
-27486.9472119
 20
24650.2014607
 10
-27504.5774351
 20
26535.6529021
  0
LWPOLYLINE
  5
135
330
1F
100
AcDbEntity
  8
main_beam_width
100
AcDbPolyline
 90
10
 70
0
43
0.0
 10
-27761.3907961
 20
139.294658558
 10
-27705.320053
 20
139.294450763
 10
-27649.24931
 20
139.294269425
 10
-27593.1785669
 20
139.294114547
 10
-27537.1078239
 20
139.29398613
 10
-27481.0370808
 20
139.293884176
 10
-27424.9663378
 20
139.293808685
 10
-27368.8955947
 20
139.293759655
 10
-27312.8248517
 20
139.293737085
 10
-27256.7541086
 20
139.293740972
  0
LWPOLYLINE
  5
136
330
1F
100
AcDbEntity
  8
main_beam_width
100
AcDbPolyline
 90
10
 70
0
43
0.0
 10
-27756.6581228
 20
134.51694953
 10
-27701.639084
 20
134.516951419
 10
-27646.6200451
 20
134.516927833
 10
-27591.6010063
 20
134.516878771
 10
-27536.5819675
 20
134.51680423
 10
-27481.5629286
 20
134.516704211
 10
-27426.5438898
 20
134.516578712
 10
-27371.524851
 20
134.516427736
 10
-27316.5058121
 20
134.516251282
 10
-27261.4867733
 20
134.516049355
  0
LWPOLYLINE
  5
137
330
1F
100
AcDbEntity
  8
main_beam_width
100
AcDbPolyline
 90
15
 70
0
43
0.0
 10
-27504.5774301
 20
26535.6529021
 10
-27522.658137
 20
24649.8581866
 10
-27540.7335049
 20
22764.0634205
 10
-27558.8026175
 20
20878.2685952
 10
-27576.864373
 20
18992.4737002
 10
-27594.9174485
 20
17106.678723
 10
-27612.9602636
 20
15220.8836487
 10
-27630.9909472
 20
13335.0884595
 10
-27649.0073177
 20
11449.2931347
 10
-27667.0068909
 20
9563.49765091
 10
-27684.9869371
 20
7677.7019822
 10
-27702.9446087
 20
5791.90610162
 10
-27720.8771547
 20
3906.10998312
 10
-27738.7822116
 20
2020.31360432
 10
-27756.6581228
 20
134.51694953
  0
LWPOLYLINE
  5
138
330
1F
100
AcDbEntity
  8
main_beam_width
100
AcDbPolyline
 90
15
 70
0
43
0.0
 10
-27513.5185649
 20
26535.6529021
 10
-27531.1488202
 20
24650.1980326
 10
-27548.7844125
 20
22764.7432136
 10
-27566.4262574
 20
20879.2884538
 10
-27584.0754563
 20
18993.8337636
 10
-27601.7333309
 20
17108.3791556
 10
-27619.4014607
 20
15222.9246447
 10
-27637.0817154
 20
13337.4702486
 10
-27654.7762751
 20
11452.015988
 10
-27672.4876223
 20
9566.56188634
 10
-27690.2184848
 20
7681.10796948
 10
-27707.9717087
 20
5795.65426436
 10
-27725.7500439
 20
3910.20079703
 10
-27743.5558539
 20
2024.74758986
 10
-27761.3907961
 20
139.294658558
  0
LWPOLYLINE
  5
139
330
1F
100
AcDbEntity
  8
main_beam_width
100
AcDbPolyline
 90
10
 70
0
43
0.0
 10
-27513.5185691
 20
26535.6529021
 10
-27513.5405663
 20
26538.9598935
 10
-27513.5625635
 20
26542.2668849
 10
-27513.5845607
 20
26545.5738764
 10
-27513.6065578
 20
26548.8808678
 10
-27513.628555
 20
26552.1878592
 10
-27513.6505522
 20
26555.4948506
 10
-27513.6725494
 20
26558.801842
 10
-27513.6945466
 20
26562.1088335
 10
-27513.7165438
 20
26565.4158249
  0
LWPOLYLINE
  5
13a
330
1F
100
AcDbEntity
  8
main_beam_width
100
AcDbPolyline
 90
10
 70
0
43
0.0
 10
-27504.5774344
 20
26535.6529021
 10
-27504.598917
 20
26539.0032914
 10
-27504.6203997
 20
26542.3536806
 10
-27504.6418823
 20
26545.7040699
 10
-27504.663365
 20
26549.0544591
 10
-27504.6848476
 20
26552.4048484
 10
-27504.7063303
 20
26555.7552377
 10
-27504.7278129
 20
26559.1056269
 10
-27504.7492955
 20
26562.4560162
 10
-27504.7707782
 20
26565.8064055
  0
LWPOLYLINE
  5
13b
330
1F
100
AcDbEntity
  8
main_beam_width
100
AcDbPolyline
 90
10
 70
0
43
0.0
 10
-27256.7056617
 20
139.342648856
 10
-27253.1393408
 20
138.34112068
 10
-27249.5730199
 20
137.339592531
 10
-27246.006699
 20
136.338064412
 10
-27242.4403782
 20
135.336536321
 10
-27238.8740572
 20
134.335008258
 10
-27235.3077363
 20
133.333480223
 10
-27231.7414154
 20
132.331952217
 10
-27228.1750945
 20
131.330424239
 10
-27224.6087735
 20
130.32889629
  0
LWPOLYLINE
  5
13c
330
1F
100
AcDbEntity
  8
main_beam_width
100
AcDbPolyline
 90
10
 70
0
43
0.0
 10
-27261.4383352
 20
134.564948273
 10
-27257.8369451
 20
133.55356242
 10
-27254.235555
 20
132.542176538
 10
-27250.6341649
 20
131.530790627
 10
-27247.0327748
 20
130.519404687
 10
-27243.4313847
 20
129.508018718
 10
-27239.8299946
 20
128.496632721
 10
-27236.2286045
 20
127.485246694
 10
-27232.6272145
 20
126.473860638
 10
-27229.0258244
 20
125.462474553
  0
LWPOLYLINE
  5
13d
330
1F
100
AcDbEntity
  8
main_beam_width
100
AcDbPolyline
 90
18
 70
0
43
0.0
 10
-24459.174308
 20
287.50212812
 10
-24517.6344936
 20
294.136048207
 10
-24576.0946797
 20
300.769964271
 10
-24634.5548662
 20
307.403876432
 10
-24693.0150532
 20
314.037784802
 10
-24751.4752406
 20
320.671689493
 10
-24809.9354284
 20
327.305590609
 10
-24868.3956165
 20
333.939488252
 10
-24926.8558051
 20
340.573382521
 10
-24985.3159941
 20
347.207273509
 10
-25043.7761834
 20
353.841161307
 10
-25102.236373
 20
360.475046002
 10
-25160.6965631
 20
367.10892768
 10
-25219.1567534
 20
373.74280642
 10
-25277.6169441
 20
380.376682301
 10
-25336.0771351
 20
387.0105554
 10
-25394.5373264
 20
393.644425788
 10
-25452.997518
 20
400.278293537
  0
LWPOLYLINE
  5
13e
330
1F
100
AcDbEntity
  8
main_beam_width
100
AcDbPolyline
 90
18
 70
0
43
0.0
 10
-24458.5374159
 20
296.619588636
 10
-24516.963567
 20
303.342858953
 10
-24575.3897177
 20
310.066133289
 10
-24633.8158679
 20
316.789411525
 10
-24692.2420177
 20
323.512693547
 10
-24750.6681671
 20
330.235979246
 10
-24809.0943161
 20
336.959268516
 10
-24867.5204647
 20
343.682561255
 10
-24925.9466129
 20
350.405857366
 10
-24984.3727607
 20
357.129156754
 10
-25042.7989081
 20
363.85245933
 10
-25101.2250552
 20
370.575765005
 10
-25159.651202
 20
377.299073696
 10
-25218.0773484
 20
384.022385322
 10
-25276.5034945
 20
390.745699803
 10
-25334.9296402
 20
397.469017066
 10
-25393.3557857
 20
404.192337036
 10
-25451.7819309
 20
410.915659644
  0
LWPOLYLINE
  5
13f
330
1F
100
AcDbEntity
  8
main_beam_width
100
AcDbPolyline
 90
10
 70
0
43
0.0
 10
-29792.5061048
 20
65.6797729976
 10
-29570.3981826
 20
72.8615831419
 10
-29348.2902718
 20
80.0437476146
 10
-29126.1823725
 20
87.226267756
 10
-28904.0744847
 20
94.4091447615
 10
-28681.9666086
 20
101.592379679
 10
-28459.858744
 20
108.775973407
 10
-28237.7508911
 20
115.959926693
 10
-28015.6430499
 20
123.14424013
 10
-27793.5352203
 20
130.328914158
  0
LWPOLYLINE
  5
140
330
1F
100
AcDbEntity
  8
main_beam_width
100
AcDbPolyline
 90
10
 70
0
43
0.0
 10
-29788.0558612
 20
60.7767726792
 10
-29565.9517203
 20
67.9655027181
 10
-29343.847568
 20
75.1538784128
 10
-29121.7434042
 20
82.3418984257
 10
-28899.6392288
 20
89.5295615644
 10
-28677.5350419
 20
96.7168667837
 10
-28455.4308433
 20
103.903813188
 10
-28233.3266332
 20
111.090400034
 10
-28011.2224113
 20
118.27662673
 10
-27789.1181778
 20
125.462492839
  0
LWPOLYLINE
  5
141
330
1F
100
AcDbEntity
  8
main_beam_width
100
AcDbPolyline
 90
10
 70
0
43
0.0
 10
-19562.2596611
 20
230.925947784
 10
-19551.1330549
 20
230.957465766
 10
-19540.0064486
 20
230.988983823
 10
-19528.8798423
 20
231.020501953
 10
-19517.7532361
 20
231.052020159
 10
-19506.6266298
 20
231.083538439
 10
-19495.5000235
 20
231.115056793
 10
-19484.3734173
 20
231.146575222
 10
-19473.246811
 20
231.178093725
 10
-19462.1202047
 20
231.209612303
  0
LWPOLYLINE
  5
142
330
1F
100
AcDbEntity
  8
main_beam_width
100
AcDbPolyline
 90
10
 70
0
43
0.0
 10
-19561.9203289
 20
221.940176669
 10
-19550.828592
 20
221.971731319
 10
-19539.7368551
 20
222.003285895
 10
-19528.6451183
 20
222.034840398
 10
-19517.5533814
 20
222.066394826
 10
-19506.4616445
 20
222.09794918
 10
-19495.3699077
 20
222.12950346
 10
-19484.2781708
 20
222.161057666
 10
-19473.1864339
 20
222.192611798
 10
-19462.0946971
 20
222.224165855
  0
LWPOLYLINE
  5
143
330
1F
100
AcDbEntity
  8
main_beam_width
100
AcDbPolyline
 90
10
 70
0
43
0.0
 10
-21413.7959309
 20
-57.9168336189
 10
-21302.7798131
 20
-62.3913779703
 10
-21191.7636921
 20
-66.8658439929
 10
-21080.747568
 20
-71.3402307926
 10
-20969.7314406
 20
-75.8145374687
 10
-20858.71531
 20
-80.2887631146
 10
-20747.6991761
 20
-84.7629068175
 10
-20636.6830388
 20
-89.2369676589
 10
-20525.6668982
 20
-93.7109447144
 10
-20414.6507542
 20
-98.1848370543
  0
LWPOLYLINE
  5
144
330
1F
100
AcDbEntity
  8
main_beam_width
100
AcDbPolyline
 90
10
 70
0
43
0.0
 10
-21414.09494
 20
-63.1766469126
 10
-21303.0683147
 20
-67.6316212885
 10
-21192.0416926
 20
-72.0866740061
 10
-21081.0150737
 20
-76.54180596
 10
-20969.988458
 20
-80.997018051
 10
-20858.9618455
 20
-85.4523111859
 10
-20747.9352364
 20
-89.9076862779
 10
-20636.9086306
 20
-94.3631442456
 10
-20525.8820281
 20
-98.8186860138
 10
-20414.8554291
 20
-103.274312512
  0
LWPOLYLINE
  5
145
330
1F
100
AcDbEntity
  8
main_beam_width
100
AcDbPolyline
 90
36
 70
0
43
0.0
 10
-21444.2466624
 20
-61.8104355732
 10
-21529.5359919
 20
-51.9146919312
 10
-21614.8253265
 20
-42.0189915151
 10
-21700.1146659
 20
-32.123331809
 10
-21785.4040097
 20
-22.2277104871
 10
-21870.6933577
 20
-12.3321253957
 10
-21955.9827097
 20
-2.43657453808
 10
-22041.2720656
 20
7.45894393944
 10
-22126.5614249
 20
17.3544317602
 10
-22211.8507877
 20
27.2498905282
 10
-22297.1401537
 20
37.1453217382
 10
-22382.4295228
 20
47.040726785
 10
-22467.7188947
 20
56.9361069713
 10
-22553.0082694
 20
66.8314635152
 10
-22638.2976467
 20
76.7267975572
 10
-22723.5870266
 20
86.6221101659
 10
-22808.8764088
 20
96.5174023436
 10
-22894.1657933
 20
106.412675032
 10
-22979.4551799
 20
116.307929114
 10
-23064.7445686
 20
126.203165424
 10
-23150.0339594
 20
136.098384744
 10
-23235.323352
 20
145.993587813
 10
-23320.6127464
 20
155.888775327
 10
-23405.9021425
 20
165.783947943
 10
-23491.1915404
 20
175.679106282
 10
-23576.4809398
 20
185.574250932
 10
-23661.7703407
 20
195.469382448
 10
-23747.0597432
 20
205.364501355
 10
-23832.349147
 20
215.259608152
 10
-23917.6385522
 20
225.154703312
 10
-24002.9279587
 20
235.049787283
 10
-24088.2173665
 20
244.94486049
 10
-24173.5067754
 20
254.839923338
 10
-24258.7961856
 20
264.734976212
 10
-24344.0855968
 20
274.630019477
 10
-24429.3750092
 20
284.525053481
  0
LWPOLYLINE
  5
146
330
1F
100
AcDbEntity
  8
main_beam_width
100
AcDbPolyline
 90
36
 70
0
43
0.0
 10
-21443.8554862
 20
-56.5510461352
 10
-21529.13932
 20
-46.5467499768
 10
-21614.4231488
 20
-36.5424105924
 10
-21699.7069729
 20
-26.5380304977
 10
-21784.9907925
 20
-16.5336120189
 10
-21870.2746078
 20
-6.52915730955
 10
-21955.5584192
 20
3.47533163357
 10
-22040.8422268
 20
13.4798529566
 10
-22126.1260308
 20
23.4844049363
 10
-22211.4098314
 20
33.4889859686
 10
-22296.6936288
 20
43.4935945585
 10
-22381.9774231
 20
53.4982293115
 10
-22467.2612146
 20
63.5028889248
 10
-22552.5450033
 20
73.5075721801
 10
-22637.8287894
 20
83.512277937
 10
-22723.1125729
 20
93.517005127
 10
-22808.3963541
 20
103.521752748
 10
-22893.680133
 20
113.526519858
 10
-22978.9639097
 20
123.531305572
 10
-23064.2476844
 20
133.53610906
 10
-23149.5314571
 20
143.540929537
 10
-23234.8152279
 20
153.545766265
 10
-23320.0989968
 20
163.550618547
 10
-23405.3827641
 20
173.555485727
 10
-23490.6665296
 20
183.560367184
 10
-23575.9502936
 20
193.565262329
 10
-23661.234056
 20
203.570170609
 10
-23746.517817
 20
213.575091496
 10
-23831.8015766
 20
223.580024493
 10
-23917.0853348
 20
233.584969127
 10
-24002.3690917
 20
243.58992495
 10
-24087.6528473
 20
253.594891536
 10
-24172.9366017
 20
263.599868481
 10
-24258.220355
 20
273.6048554
 10
-24343.5041071
 20
283.609851928
 10
-24428.7878582
 20
293.614857715
  0
LWPOLYLINE
  5
147
330
1F
100
AcDbEntity
  8
main_beam_width
100
AcDbPolyline
 90
10
 70
0
43
0.0
 10
-24428.7878631
 20
293.614781272
 10
-23888.062526
 20
286.647906508
 10
-23347.3371843
 20
279.681390071
 10
-22806.6118379
 20
272.715233752
 10
-22265.8864869
 20
265.749439263
 10
-21725.1611312
 20
258.784008244
 10
-21184.4357708
 20
251.818942254
 10
-20643.7104056
 20
244.854242772
 10
-20102.9850358
 20
237.889911197
 10
-19562.2596612
 20
230.925948843
  0
LWPOLYLINE
  5
148
330
1F
100
AcDbEntity
  8
main_beam_width
100
AcDbPolyline
 90
10
 70
0
43
0.0
 10
-24429.3750141
 20
284.524976107
 10
-23888.5466971
 20
277.572559108
 10
-23347.7183847
 20
270.619783646
 10
-22806.890077
 20
263.666647932
 10
-22266.0617739
 20
256.713150249
 10
-21725.2334754
 20
249.759288959
 10
-21184.4051817
 20
242.805062502
 10
-20643.5768927
 20
235.850469396
 10
-20102.7486084
 20
228.895508243
 10
-19561.9203289
 20
221.940177728
  0
LWPOLYLINE
  5
149
330
1F
100
AcDbEntity
  8
main_beam_width
100
AcDbPolyline
 90
10
 70
0
43
0.0
 10
-27513.7165219
 20
26565.4158259
 10
-27513.6829966
 20
26568.7711394
 10
-27513.6494714
 20
26572.1264529
 10
-27513.6159461
 20
26575.4817664
 10
-27513.5824209
 20
26578.8370799
 10
-27513.5488957
 20
26582.1923935
 10
-27513.5153706
 20
26585.547707
 10
-27513.4818454
 20
26588.9030205
 10
-27513.4483202
 20
26592.258334
 10
-27513.4147951
 20
26595.6136476
  0
LWPOLYLINE
  5
14a
330
1F
100
AcDbEntity
  8
main_beam_width
100
AcDbPolyline
 90
10
 70
0
43
0.0
 10
-27504.7707562
 20
26565.8064064
 10
-27504.736617
 20
26569.1082115
 10
-27504.7024778
 20
26572.4100166
 10
-27504.6683386
 20
26575.7118217
 10
-27504.6341994
 20
26579.0136267
 10
-27504.6000602
 20
26582.3154318
 10
-27504.565921
 20
26585.6172369
 10
-27504.5317817
 20
26588.919042
 10
-27504.4976425
 20
26592.2208471
 10
-27504.4635032
 20
26595.5226521
  0
LWPOLYLINE
  5
14b
330
1F
100
AcDbEntity
  8
main_beam_width
100
AcDbPolyline
 90
10
 70
0
43
0.0
 10
-27513.7165219
 20
26565.4158259
 10
-27512.7059938
 20
26666.553308
 10
-27511.6954788
 20
26767.6907903
 10
-27510.6849765
 20
26868.8282728
 10
-27509.674487
 20
26969.9657553
 10
-27508.66401
 20
27071.103238
 10
-27507.6535453
 20
27172.2407208
 10
-27506.643093
 20
27273.3782038
 10
-27505.6326527
 20
27374.5156868
 10
-27504.6222243
 20
27475.65317
  0
LWPOLYLINE
  5
14c
330
1F
100
AcDbEntity
  8
main_beam_width
100
AcDbPolyline
 90
10
 70
0
43
0.0
 10
-27504.7707562
 20
26565.8064064
 10
-27503.7254829
 20
26666.9004918
 10
-27502.6801967
 20
26767.994577
 10
-27501.6348977
 20
26869.0886621
 10
-27500.5895861
 20
26970.1827471
 10
-27499.5442619
 20
27071.2768319
 10
-27498.4989253
 20
27172.3709166
 10
-27497.4535765
 20
27273.4650012
 10
-27496.4082156
 20
27374.5590857
 10
-27495.3628428
 20
27475.65317
  0
LWPOLYLINE
  5
14d
330
1F
100
AcDbEntity
  8
main_beam_width
100
AcDbPolyline
 90
10
 70
0
43
0.0
 10
-27504.4841437
 20
27495.6890152
 10
-27503.8830042
 20
27540.140488
 10
-27503.281867
 20
27584.5919609
 10
-27502.6807321
 20
27629.0434338
 10
-27502.0795994
 20
27673.4949067
 10
-27501.478469
 20
27717.9463797
 10
-27500.8773407
 20
27762.3978527
 10
-27500.2762147
 20
27806.8493257
 10
-27499.6750909
 20
27851.3007988
 10
-27499.0739693
 20
27895.7522719
  0
LWPOLYLINE
  5
14e
330
1F
100
AcDbEntity
  8
main_beam_width
100
AcDbPolyline
 90
10
 70
0
43
0.0
 10
-27495.2194049
 20
27495.7617818
 10
-27494.6030086
 20
27540.1908589
 10
-27493.98661
 20
27584.619936
 10
-27493.3702091
 20
27629.049013
 10
-27492.753806
 20
27673.47809
 10
-27492.1374007
 20
27717.907167
 10
-27491.5209931
 20
27762.336244
 10
-27490.9045833
 20
27806.7653209
 10
-27490.2881713
 20
27851.1943978
 10
-27489.6717572
 20
27895.6234747
  0
LWPOLYLINE
  5
14f
330
1F
100
AcDbEntity
  8
main_beam_width
100
AcDbPolyline
 90
10
 70
0
43
0.0
 10
-27504.6222287
 20
27475.65317
 10
-27504.6068869
 20
27477.879375
 10
-27504.5915451
 20
27480.10558
 10
-27504.5762034
 20
27482.331785
 10
-27504.5608616
 20
27484.55799
 10
-27504.5455198
 20
27486.7841951
 10
-27504.5301781
 20
27489.0104001
 10
-27504.5148363
 20
27491.2366051
 10
-27504.4994946
 20
27493.4628101
 10
-27504.4841528
 20
27495.6890151
  0
LWPOLYLINE
  5
150
330
1F
100
AcDbEntity
  8
main_beam_width
100
AcDbPolyline
 90
10
 70
0
43
0.0
 10
-27495.3628471
 20
27475.65317
 10
-27495.3469101
 20
27477.8874602
 10
-27495.3309731
 20
27480.1217504
 10
-27495.3150361
 20
27482.3560406
 10
-27495.2990991
 20
27484.5903308
 10
-27495.2831621
 20
27486.8246209
 10
-27495.2672251
 20
27489.0589111
 10
-27495.2512881
 20
27491.2932013
 10
-27495.2353511
 20
27493.5274915
 10
-27495.2194141
 20
27495.7617817
  0
LWPOLYLINE
  5
151
330
1F
100
AcDbEntity
  8
main_beam_width
100
AcDbPolyline
 90
10
 70
0
43
0.0
 10
-27793.5352176
 20
130.328911257
 10
-27789.9688972
 20
131.330437532
 10
-27786.4025767
 20
132.331963835
 10
-27782.8362563
 20
133.333490167
 10
-27779.2699359
 20
134.335016528
 10
-27775.7036155
 20
135.336542916
 10
-27772.1372951
 20
136.338069333
 10
-27768.5709747
 20
137.339595779
 10
-27765.0046543
 20
138.341122252
 10
-27761.4383339
 20
139.342648755
  0
LWPOLYLINE
  5
152
330
1F
100
AcDbEntity
  8
main_beam_width
100
AcDbPolyline
 90
10
 70
0
43
0.0
 10
-27789.1181752
 20
125.462489967
 10
-27785.5167857
 20
126.47387435
 10
-27781.9153962
 20
127.485258705
 10
-27778.3140066
 20
128.49664303
 10
-27774.7126171
 20
129.508027326
 10
-27771.1112275
 20
130.519411594
 10
-27767.5098379
 20
131.530795832
 10
-27763.9084484
 20
132.542180042
 10
-27760.3070588
 20
133.553564222
 10
-27756.7056692
 20
134.564948374
  0
LWPOLYLINE
  5
153
330
1F
100
AcDbEntity
  8
main_beam_width
100
AcDbPolyline
 90
10
 70
0
43
0.0
 10
-24429.3750124
 20
284.525002938
 10
-24432.6860459
 20
284.85578543
 10
-24435.9970794
 20
285.186567915
 10
-24439.3081129
 20
285.517350394
 10
-24442.6191463
 20
285.848132866
 10
-24445.9301798
 20
286.178915333
 10
-24449.2412133
 20
286.509697793
 10
-24452.5522468
 20
286.840480246
 10
-24455.8632803
 20
287.171262693
 10
-24459.1743138
 20
287.502045134
  0
LWPOLYLINE
  5
154
330
1F
100
AcDbEntity
  8
main_beam_width
100
AcDbPolyline
 90
10
 70
0
43
0.0
 10
-24428.7878615
 20
293.614807316
 10
-24432.0933681
 20
293.948662661
 10
-24435.3988748
 20
294.282518011
 10
-24438.7043815
 20
294.616373368
 10
-24442.0098882
 20
294.950228731
 10
-24445.3153949
 20
295.284084101
 10
-24448.6209016
 20
295.617939476
 10
-24451.9264083
 20
295.951794859
 10
-24455.231915
 20
296.285650247
 10
-24458.5374217
 20
296.619505642
  0
CIRCLE
  5
156
330
1F
100
AcDbEntity
  8
Vacuum
100
AcDbCircle
 10
-19512.0901964
 20
226.574999379
 30
0.0
  40
750.0
  0
LWPOLYLINE
  5
157
330
1F
100
AcDbEntity
  8
Vacuum
100
AcDbPolyline
 90
5
 70
0
43
0.0
 10
-20362.0901964
 20
619.074999379
 10
-18662.0901964
 20
619.074999379
 10
-18662.0901964
 20
-165.925000621
 10
-20362.0901964
 20
-165.925000621
 10
-20362.0901964
 20
619.074999379
  0
CIRCLE
  5
158
330
1F
100
AcDbEntity
  8
Vacuum
100
AcDbCircle
 10
-4648.14247562
 20
269.304550668
 30
0.0
  40
750.0
  0
LWPOLYLINE
  5
159
330
1F
100
AcDbEntity
  8
Vacuum
100
AcDbPolyline
 90
5
 70
0
43
0.0
 10
-5498.14247562
 20
501.804550668
 10
-3798.14247562
 20
501.804550668
 10
-3798.14247562
 20
-283.195449332
 10
-5498.14247562
 20
-283.195449332
 10
-5498.14247562
 20
501.804550668
  0
CIRCLE
  5
15a
330
1F
100
AcDbEntity
  8
Vacuum
100
AcDbCircle
 10
-15813.4545987
 20
11.6583013092
 30
0.0
  40
750.0
  0
LWPOLYLINE
  5
15b
330
1F
100
AcDbEntity
  8
Vacuum
100
AcDbPolyline
 90
5
 70
0
43
0.0
 10
-16663.4545987
 20
564.158301309
 10
-14963.4545987
 20
564.158301309
 10
-14963.4545987
 20
-220.841698691
 10
-16663.4545987
 20
-220.841698691
 10
-16663.4545987
 20
564.158301309
  0
LINE
  5
15c
330
1F
100
AcDbEntity
  8
Vacuum
100
AcDbLine
 10
-18662.0901964
 20
619.074999379
 30
0.0
  11
-16663.4545987
 21
564.158301309
 31
0.0
  0
LINE
  5
15d
330
1F
100
AcDbEntity
  8
Vacuum
100
AcDbLine
 10
-18662.0901964
 20
-165.925000621
 30
0.0
  11
-16663.4545987
 21
-220.841698691
 31
0.0
  0
LINE
  5
15e
330
1F
100
AcDbEntity
  8
Vacuum
100
AcDbLine
 10
-14963.4545987
 20
564.158301309
 30
0.0
  11
-5498.14247562
 21
501.804550668
 31
0.0
  0
LINE
  5
15f
330
1F
100
AcDbEntity
  8
Vacuum
100
AcDbLine
 10
-14963.4545987
 20
-220.841698691
 30
0.0
  11
-5498.14247562
 21
-283.195449332
 31
0.0
  0
CIRCLE
  5
160
330
1F
100
AcDbEntity
  8
Vacuum
100
AcDbCircle
 10
28.2779650527
 20
-28.2905760365
 30
0.0
  40
750.0
  0
LWPOLYLINE
  5
161
330
1F
100
AcDbEntity
  8
Vacuum
100
AcDbPolyline
 90
5
 70
0
43
0.0
 10
-821.722034947
 20
364.209423964
 10
878.277965053
 20
364.209423964
 10
878.277965053
 20
-420.790576036
 10
-821.722034947
 20
-420.790576036
 10
-821.722034947
 20
364.209423964
  0
LWPOLYLINE
  5
162
330
1F
100
AcDbEntity
  8
Vacuum
100
AcDbPolyline
 90
5
 70
0
43
0.0
 10
-364.222034947
 20
821.709423964
 10
420.777965053
 20
821.709423964
 10
420.777965053
 20
-878.290576036
 10
-364.222034947
 20
-878.290576036
 10
-364.222034947
 20
821.709423964
  0
LINE
  5
163
330
1F
100
AcDbEntity
  8
Vacuum
100
AcDbLine
 10
-3798.14247562
 20
501.804550668
 30
0.0
  11
-821.722034947
 21
364.209423964
 31
0.0
  0
LINE
  5
164
330
1F
100
AcDbEntity
  8
Vacuum
100
AcDbLine
 10
-3798.14247562
 20
-283.195449332
 30
0.0
  11
-821.722034947
 21
-420.790576036
 31
0.0
  0
CIRCLE
  5
165
330
1F
100
AcDbEntity
  8
Vacuum
100
AcDbCircle
 10
265.171145199
 20
-19376.4355913
 30
0.0
  40
750.0
  0
LWPOLYLINE
  5
166
330
1F
100
AcDbEntity
  8
Vacuum
100
AcDbPolyline
 90
5
 70
0
43
0.0
 10
-127.328854801
 20
-18526.4355913
 10
657.671145199
 20
-18526.4355913
 10
657.671145199
 20
-20226.4355913
 10
-127.328854801
 20
-20226.4355913
 10
-127.328854801
 20
-18526.4355913
  0
CIRCLE
  5
167
330
1F
100
AcDbEntity
  8
Vacuum
100
AcDbCircle
 10
298.140858953
 20
-4532.65181384
 30
0.0
  40
750.0
  0
LWPOLYLINE
  5
168
330
1F
100
AcDbEntity
  8
Vacuum
100
AcDbPolyline
 90
5
 70
0
43
0.0
 10
-254.359141047
 20
-3682.65181384
 10
530.640858953
 20
-3682.65181384
 10
530.640858953
 20
-5382.65181384
 10
-254.359141047
 20
-5382.65181384
 10
-254.359141047
 20
-3682.65181384
  0
CIRCLE
  5
169
330
1F
100
AcDbEntity
  8
Vacuum
100
AcDbCircle
 10
46.7147158387
 20
-15743.6344271
 30
0.0
  40
750.0
  0
LWPOLYLINE
  5
16a
330
1F
100
AcDbEntity
  8
Vacuum
100
AcDbPolyline
 90
5
 70
0
43
0.0
 10
-345.785284161
 20
-14893.6344271
 10
439.214715839
 20
-14893.6344271
 10
439.214715839
 20
-16593.6344271
 10
-345.785284161
 20
-16593.6344271
 10
-345.785284161
 20
-14893.6344271
  0
LINE
  5
16b
330
1F
100
AcDbEntity
  8
Vacuum
100
AcDbLine
 10
-127.328854801
 20
-18526.4355913
 30
0.0
  11
-345.785284161
 21
-16593.6344271
 31
0.0
  0
LINE
  5
16c
330
1F
100
AcDbEntity
  8
Vacuum
100
AcDbLine
 10
657.671145199
 20
-18526.4355913
 30
0.0
  11
439.214715839
 21
-16593.6344271
 31
0.0
  0
LINE
  5
16d
330
1F
100
AcDbEntity
  8
Vacuum
100
AcDbLine
 10
-345.785284161
 20
-14893.6344271
 30
0.0
  11
-254.359141047
 21
-5382.65181384
 31
0.0
  0
LINE
  5
16e
330
1F
100
AcDbEntity
  8
Vacuum
100
AcDbLine
 10
439.214715839
 20
-14893.6344271
 30
0.0
  11
530.640858953
 21
-5382.65181384
 31
0.0
  0
LINE
  5
16f
330
1F
100
AcDbEntity
  8
Vacuum
100
AcDbLine
 10
-254.359141047
 20
-3682.65181384
 30
0.0
  11
-364.222034947
 21
-878.290576036
 31
0.0
  0
LINE
  5
170
330
1F
100
AcDbEntity
  8
Vacuum
100
AcDbLine
 10
530.640858953
 20
-3682.65181384
 30
0.0
  11
420.777965053
 21
-878.290576036
 31
0.0
  0
CIRCLE
  5
171
330
1F
100
AcDbEntity
  8
Vacuum
100
AcDbCircle
 10
26432.1160223
 20
-16.3807284905
 30
0.0
  40
1250.0
  0
LWPOLYLINE
  5
172
330
1F
100
AcDbEntity
  8
Vacuum
100
AcDbPolyline
 90
5
 70
0
43
0.0
 10
25082.1160223
 20
376.119271509
 10
27782.1160223
 20
376.119271509
 10
27782.1160223
 20
-408.880728491
 10
25082.1160223
 20
-408.880728491
 10
25082.1160223
 20
376.119271509
  0
CIRCLE
  5
173
330
1F
100
AcDbEntity
  8
Vacuum
100
AcDbCircle
 10
-7.59055707329
 20
23146.9789127
 30
0.0
  40
1250.0
  0
LWPOLYLINE
  5
174
330
1F
100
AcDbEntity
  8
Vacuum
100
AcDbPolyline
 90
5
 70
0
43
0.0
 10
-400.090557073
 20
24496.9789127
 10
384.909442927
 20
24496.9789127
 10
384.909442927
 20
21796.9789127
 10
-400.090557073
 20
21796.9789127
 10
-400.090557073
 20
24496.9789127
  0
LINE
  5
175
330
1F
100
AcDbEntity
  8
Vacuum
100
AcDbLine
 10
878.277965053
 20
364.209423964
 30
0.0
  11
25082.1160223
 21
376.119271509
 31
0.0
  0
LINE
  5
176
330
1F
100
AcDbEntity
  8
Vacuum
100
AcDbLine
 10
878.277965053
 20
-420.790576036
 30
0.0
  11
25082.1160223
 21
-408.880728491
 31
0.0
  0
LINE
  5
177
330
1F
100
AcDbEntity
  8
Vacuum
100
AcDbLine
 10
-364.222034947
 20
821.709423964
 30
0.0
  11
-400.090557073
 21
21796.9789127
 31
0.0
  0
LINE
  5
178
330
1F
100
AcDbEntity
  8
Vacuum
100
AcDbLine
 10
420.777965053
 20
821.709423964
 30
0.0
  11
384.909442927
 21
21796.9789127
 31
0.0
  0
ENDSEC
  0
SECTION
  2
OBJECTS
  0
DICTIONARY
  5
C
330
0
100
AcDbDictionary
281
     1
  3
ACAD_GROUP
350
D
  3
ACAD_LAYOUT
350
1A
  3
ACAD_MATERIAL
350
3B
  3
ACAD_MLEADERSTYLE
350
6E
  3
ACAD_MLINESTYLE
350
17
  3
ACAD_PLOTSETTINGS
350
19
  3
ACAD_PLOTSTYLENAME
350
E
  3
ACAD_TABLESTYLE
350
6D
  3
ACAD_VISUALSTYLE
350
2A
  0
SUN
  5
3F
330
29
100
AcDbSun
 90
        1
290
     0
 63
     7
421
 16777215
 40
1.0
291
     1
 91
  2455826
 92
 54000000
292
     0
 70
     2
 71
   256
280
     1
  0
DICTIONARY
  5
D
102
{ACAD_REACTORS
330
C
102
}
330
C
100
AcDbDictionary
281
     1
  0
DICTIONARY
  5
1A
102
{ACAD_REACTORS
330
C
102
}
330
C
100
AcDbDictionary
281
     1
  3
Layout1
350
1E
  3
Layout2
350
26
  3
Model
350
22
  0
DICTIONARY
  5
3B
102
{ACAD_REACTORS
330
C
102
}
330
C
100
AcDbDictionary
281
     1
  3
ByBlock
350
3D
  3
ByLayer
350
3C
  3
Global
350
3E
  0
DICTIONARY
  5
6E
102
{ACAD_REACTORS
330
C
102
}
330
C
100
AcDbDictionary
281
     1
  0
DICTIONARY
  5
17
102
{ACAD_REACTORS
330
C
102
}
330
C
100
AcDbDictionary
281
     1
  3
Standard
350
18
  0
DICTIONARY
  5
19
102
{ACAD_REACTORS
330
C
102
}
330
C
100
AcDbDictionary
281
     1
  0
ACDBDICTIONARYWDFLT
  5
E
102
{ACAD_REACTORS
330
C
102
}
330
C
100
AcDbDictionary
281
     1
  3
Normal
350
F
100
AcDbDictionaryWithDefault
340
F
  0
DICTIONARY
  5
6D
102
{ACAD_REACTORS
330
C
102
}
330
C
100
AcDbDictionary
281
     1
  0
DICTIONARY
  5
2A
102
{ACAD_REACTORS
330
C
102
}
330
C
100
AcDbDictionary
281
     1
  3
2dWireframe
350
2F
  3
3D Hidden
350
31
  3
3dWireframe
350
30
  3
Basic
350
32
  3
Brighten
350
36
  3
ColorChange
350
3A
  3
Conceptual
350
34
  3
Dim
350
35
  3
Facepattern
350
39
  3
Flat
350
2B
  3
FlatWithEdges
350
2C
  3
Gouraud
350
2D
  3
GouraudWithEdges
350
2E
  3
Linepattern
350
38
  3
Realistic
350
33
  3
Thicken
350
37
  0
LAYOUT
  5
1E
102
{ACAD_REACTORS
330
1A
102
}
330
1A
100
AcDbPlotSettings
  1

  2
none_device
  4

  6

 40
0.0
 41
0.0
 42
0.0
 43
0.0
 44
0.0
 45
0.0
 46
0.0
 47
0.0
 48
0.0
 49
0.0
140
0.0
141
0.0
142
1.0
143
1.0
 70
   688
 72
     0
 73
     0
 74
     5
  7

 75
    16
 76
     0
 77
     2
 78
   300
147
1.0
148
0.0
149
0.0
100
AcDbLayout
  1
Layout1
 70
     1
 71
     1
 10
0.0
 20
0.0
 11
420.0
 21
297.0
 12
0.0
 22
0.0
 32
0.0
 14
1.000000000000000E+20
 24
1.000000000000000E+20
 34
1.000000000000000E+20
 15
-1.000000000000000E+20
 25
-1.000000000000000E+20
 35
-1.000000000000000E+20
146
0.0
 13
0.0
 23
0.0
 33
0.0
 16
1.0
 26
0.0
 36
0.0
 17
0.0
 27
1.0
 37
0.0
 76
     0
330
1B
  0
LAYOUT
  5
26
102
{ACAD_REACTORS
330
1A
102
}
330
1A
100
AcDbPlotSettings
  1

  2
none_device
  4

  6

 40
0.0
 41
0.0
 42
0.0
 43
0.0
 44
0.0
 45
0.0
 46
0.0
 47
0.0
 48
0.0
 49
0.0
140
0.0
141
0.0
142
1.0
143
1.0
 70
   688
 72
     0
 73
     0
 74
     5
  7

 75
    16
 76
     0
 77
     2
 78
   300
147
1.0
148
0.0
149
0.0
100
AcDbLayout
  1
Layout2
 70
     1
 71
     2
 10
0.0
 20
0.0
 11
0.0
 21
0.0
 12
0.0
 22
0.0
 32
0.0
 14
0.0
 24
0.0
 34
0.0
 15
0.0
 25
0.0
 35
0.0
146
0.0
 13
0.0
 23
0.0
 33
0.0
 16
1.0
 26
0.0
 36
0.0
 17
0.0
 27
1.0
 37
0.0
 76
     0
330
23
  0
LAYOUT
  5
22
102
{ACAD_REACTORS
330
1A
102
}
330
1A
100
AcDbPlotSettings
  1

  2
none_device
  4

  6

 40
0.0
 41
0.0
 42
0.0
 43
0.0
 44
0.0
 45
0.0
 46
0.0
 47
0.0
 48
0.0
 49
0.0
140
0.0
141
0.0
142
1.0
143
1.0
 70
  1712
 72
     0
 73
     0
 74
     0
  7

 75
     0
 76
     0
 77
     2
 78
   300
147
1.0
148
0.0
149
0.0
100
AcDbLayout
  1
Model
 70
     1
 71
     0
 10
0.0
 20
0.0
 11
420.0
 21
297.0
 12
0.0
 22
0.0
 32
0.0
 14
1.0
 24
0.0
 34
0.0
 15
73.0
 25
41.0
 35
0.0
146
0.0
 13
0.0
 23
0.0
 33
0.0
 16
1.0
 26
0.0
 36
0.0
 17
0.0
 27
1.0
 37
0.0
 76
     0
330
1F
331
29
  0
MATERIAL
  5
3D
102
{ACAD_REACTORS
330
3B
102
}
330
3B
100
AcDbMaterial
  1
ByBlock
 72
     1
 94
      127
  0
MATERIAL
  5
3C
102
{ACAD_REACTORS
330
3B
102
}
330
3B
100
AcDbMaterial
  1
ByLayer
 72
     1
 94
      127
  0
MATERIAL
  5
3E
102
{ACAD_REACTORS
330
3B
102
}
330
3B
100
AcDbMaterial
  1
Global
 72
     1
 94
      127
  0
MLINESTYLE
  5
18
102
{ACAD_REACTORS
330
17
102
}
330
17
100
AcDbMlineStyle
  2
Standard
 70
     0
  3

 62
   256
 51
90.0
 52
90.0
 71
     2
 49
0.5
 62
   256
  6
BYLAYER
 49
-0.5
 62
   256
  6
BYLAYER
  0
ACDBPLACEHOLDER
  5
F
102
{ACAD_REACTORS
330
E
102
}
330
E
  0
VISUALSTYLE
  5
2F
102
{ACAD_REACTORS
330
2A
102
}
330
2A
100
AcDbVisualStyle
  2
2dWireframe
 70
     4
177
     2
291
     0
 71
     0
176
     1
 72
     2
176
     1
 73
     0
176
     1
 90
        0
176
     1
 40
-0.6
176
     1
 41
-30.0
176
     1
 62
     5
 63
     7
421
 16777215
176
     1
 74
     1
176
     1
 91
        4
176
     1
 64
     7
176
     1
 65
   257
176
     1
 75
     1
176
     1
175
     1
176
     1
 42
1.0
176
     1
 92
        0
176
     1
 66
   257
176
     1
 43
1.0
176
     1
 76
     1
176
     1
 77
     6
176
     1
 78
     2
176
     1
 67
     7
176
     1
 79
     5
176
     1
170
     0
176
     1
171
     0
176
     1
290
     0
176
     1
 93
        1
176
     1
 44
0.0
176
     1
173
     0
176
     1
  0
VISUALSTYLE
  5
31
102
{ACAD_REACTORS
330
2A
102
}
330
2A
100
AcDbVisualStyle
  2
3D Hidden
 70
     6
177
     2
291
     0
 71
     1
176
     1
 72
     2
176
     1
 73
     2
176
     1
 90
        0
176
     1
 40
-0.6
176
     1
 41
-30.0
176
     1
 62
     5
 63
     7
421
 16777215
176
     1
 74
     2
176
     1
 91
        2
176
     1
 64
     7
176
     1
 65
   257
176
     1
 75
     2
176
     1
175
     1
176
     1
 42
40.0
176
     1
 92
        0
176
     1
 66
   257
176
     1
 43
1.0
176
     1
 76
     1
176
     1
 77
     6
176
     1
 78
     2
176
     1
 67
     7
176
     1
 79
     3
176
     1
170
     0
176
     1
171
     0
176
     1
290
     0
176
     1
 93
        1
176
     1
 44
0.0
176
     1
173
     0
176
     1
  0
VISUALSTYLE
  5
30
102
{ACAD_REACTORS
330
2A
102
}
330
2A
100
AcDbVisualStyle
  2
3dWireframe
 70
     5
177
     2
291
     0
 71
     0
176
     1
 72
     2
176
     1
 73
     0
176
     1
 90
        0
176
     1
 40
-0.6
176
     1
 41
-30.0
176
     1
 62
     5
 63
     7
421
 16777215
176
     1
 74
     1
176
     1
 91
        4
176
     1
 64
     7
176
     1
 65
   257
176
     1
 75
     1
176
     1
175
     1
176
     1
 42
1.0
176
     1
 92
        0
176
     1
 66
   257
176
     1
 43
1.0
176
     1
 76
     1
176
     1
 77
     6
176
     1
 78
     2
176
     1
 67
     7
176
     1
 79
     5
176
     1
170
     0
176
     1
171
     0
176
     1
290
     0
176
     1
 93
        1
176
     1
 44
0.0
176
     1
173
     0
176
     1
  0
VISUALSTYLE
  5
32
102
{ACAD_REACTORS
330
2A
102
}
330
2A
100
AcDbVisualStyle
  2
Basic
 70
     7
177
     2
291
     1
 71
     1
176
     1
 72
     0
176
     1
 73
     1
176
     1
 90
        0
176
     1
 40
-0.6
176
     1
 41
-30.0
176
     1
 62
     5
 63
     7
421
 16777215
176
     1
 74
     0
176
     1
 91
        4
176
     1
 64
     7
176
     1
 65
   257
176
     1
 75
     1
176
     1
175
     1
176
     1
 42
1.0
176
     1
 92
        8
176
     1
 66
     7
176
     1
 43
1.0
176
     1
 76
     1
176
     1
 77
     6
176
     1
 78
     2
176
     1
 67
     7
176
     1
 79
     5
176
     1
170
     0
176
     1
171
     0
176
     1
290
     0
176
     1
 93
        1
176
     1
 44
0.0
176
     1
173
     0
176
     1
  0
VISUALSTYLE
  5
36
102
{ACAD_REACTORS
330
2A
102
}
330
2A
100
AcDbVisualStyle
  2
Brighten
 70
    12
177
     2
291
     1
 71
     2
176
     1
 72
     2
176
     1
 73
     0
176
     1
 90
        0
176
     1
 40
-0.6
176
     1
 41
-30.0
176
     1
 62
     5
 63
     7
421
 16777215
176
     1
 74
     1
176
     1
 91
        4
176
     1
 64
     7
176
     1
 65
   257
176
     1
 75
     1
176
     1
175
     1
176
     1
 42
1.0
176
     1
 92
        8
176
     1
 66
     7
176
     1
 43
1.0
176
     1
 76
     1
176
     1
 77
     6
176
     1
 78
     2
176
     1
 67
     7
176
     1
 79
     5
176
     1
170
     0
176
     1
171
     0
176
     1
290
     0
176
     1
 93
        1
176
     1
 44
50.0
176
     1
173
     0
176
     1
  0
VISUALSTYLE
  5
3A
102
{ACAD_REACTORS
330
2A
102
}
330
2A
100
AcDbVisualStyle
  2
ColorChange
 70
    16
177
     2
291
     1
 71
     2
176
     1
 72
     2
176
     1
 73
     3
176
     1
 90
        0
176
     1
 40
-0.6
176
     1
 41
-30.0
176
     1
 62
     5
 63
     8
421
  8421504
176
     1
 74
     1
176
     1
 91
        4
176
     1
 64
     7
176
     1
 65
   257
176
     1
 75
     1
176
     1
175
     1
176
     1
 42
1.0
176
     1
 92
        8
176
     1
 66
     8
424
  8421504
176
     1
 43
1.0
176
     1
 76
     1
176
     1
 77
     6
176
     1
 78
     2
176
     1
 67
     7
176
     1
 79
     5
176
     1
170
     0
176
     1
171
     0
176
     1
290
     0
176
     1
 93
        1
176
     1
 44
0.0
176
     1
173
     0
176
     1
  0
VISUALSTYLE
  5
34
102
{ACAD_REACTORS
330
2A
102
}
330
2A
100
AcDbVisualStyle
  2
Conceptual
 70
     9
177
     2
291
     0
 71
     3
176
     1
 72
     2
176
     1
 73
     0
176
     1
 90
        0
176
     1
 40
-0.6
176
     1
 41
-30.0
176
     1
 62
     5
 63
     7
421
 16777215
176
     1
 74
     2
176
     1
 91
        2
176
     1
 64
     7
176
     1
 65
   257
176
     1
 75
     1
176
     1
175
     1
176
     1
 42
40.0
176
     1
 92
        8
176
     1
 66
     7
176
     1
 43
1.0
176
     1
 76
     1
176
     1
 77
     6
176
     1
 78
     2
176
     1
 67
     7
176
     1
 79
     3
176
     1
170
     0
176
     1
171
     0
176
     1
290
     0
176
     1
 93
        1
176
     1
 44
0.0
176
     1
173
     0
176
     1
  0
VISUALSTYLE
  5
35
102
{ACAD_REACTORS
330
2A
102
}
330
2A
100
AcDbVisualStyle
  2
Dim
 70
    11
177
     2
291
     1
 71
     2
176
     1
 72
     2
176
     1
 73
     0
176
     1
 90
        0
176
     1
 40
-0.6
176
     1
 41
-30.0
176
     1
 62
     5
 63
     7
421
 16777215
176
     1
 74
     1
176
     1
 91
        4
176
     1
 64
     7
176
     1
 65
   257
176
     1
 75
     1
176
     1
175
     1
176
     1
 42
1.0
176
     1
 92
        8
176
     1
 66
     7
176
     1
 43
1.0
176
     1
 76
     1
176
     1
 77
     6
176
     1
 78
     2
176
     1
 67
     7
176
     1
 79
     5
176
     1
170
     0
176
     1
171
     0
176
     1
290
     0
176
     1
 93
        1
176
     1
 44
-50.0
176
     1
173
     0
176
     1
  0
VISUALSTYLE
  5
39
102
{ACAD_REACTORS
330
2A
102
}
330
2A
100
AcDbVisualStyle
  2
Facepattern
 70
    15
177
     2
291
     1
 71
     2
176
     1
 72
     2
176
     1
 73
     0
176
     1
 90
        0
176
     1
 40
-0.6
176
     1
 41
-30.0
176
     1
 62
     5
 63
     7
421
 16777215
176
     1
 74
     1
176
     1
 91
        4
176
     1
 64
     7
176
     1
 65
   257
176
     1
 75
     1
176
     1
175
     1
176
     1
 42
1.0
176
     1
 92
        8
176
     1
 66
     7
176
     1
 43
1.0
176
     1
 76
     1
176
     1
 77
     6
176
     1
 78
     2
176
     1
 67
     7
176
     1
 79
     5
176
     1
170
     0
176
     1
171
     0
176
     1
290
     0
176
     1
 93
        1
176
     1
 44
0.0
176
     1
173
     0
176
     1
  0
VISUALSTYLE
  5
2B
102
{ACAD_REACTORS
330
2A
102
}
330
2A
100
AcDbVisualStyle
  2
Flat
 70
     0
177
     2
291
     1
 71
     2
176
     1
 72
     1
176
     1
 73
     1
176
     1
 90
        2
176
     1
 40
-0.6
176
     1
 41
30.0
176
     1
 62
     5
 63
     7
421
 16777215
176
     1
 74
     0
176
     1
 91
        4
176
     1
 64
     7
176
     1
 65
   257
176
     1
 75
     1
176
     1
175
     1
176
     1
 42
1.0
176
     1
 92
        8
176
     1
 66
     7
176
     1
 43
1.0
176
     1
 76
     1
176
     1
 77
     6
176
     1
 78
     2
176
     1
 67
     7
176
     1
 79
     5
176
     1
170
     0
176
     1
171
     0
176
     1
290
     0
176
     1
 93
       13
176
     1
 44
0.0
176
     1
173
     0
176
     1
  0
VISUALSTYLE
  5
2C
102
{ACAD_REACTORS
330
2A
102
}
330
2A
100
AcDbVisualStyle
  2
FlatWithEdges
 70
     1
177
     2
291
     1
 71
     2
176
     1
 72
     1
176
     1
 73
     1
176
     1
 90
        2
176
     1
 40
-0.6
176
     1
 41
30.0
176
     1
 62
     5
 63
     7
421
 16777215
176
     1
 74
     1
176
     1
 91
        4
176
     1
 64
     7
176
     1
 65
   257
176
     1
 75
     1
176
     1
175
     1
176
     1
 42
1.0
176
     1
 92
        0
176
     1
 66
   257
176
     1
 43
1.0
176
     1
 76
     1
176
     1
 77
     6
176
     1
 78
     2
176
     1
 67
     7
176
     1
 79
     5
176
     1
170
     0
176
     1
171
     0
176
     1
290
     0
176
     1
 93
       13
176
     1
 44
0.0
176
     1
173
     0
176
     1
  0
VISUALSTYLE
  5
2D
102
{ACAD_REACTORS
330
2A
102
}
330
2A
100
AcDbVisualStyle
  2
Gouraud
 70
     2
177
     2
291
     1
 71
     2
176
     1
 72
     2
176
     1
 73
     1
176
     1
 90
        2
176
     1
 40
-0.6
176
     1
 41
30.0
176
     1
 62
     5
 63
     7
421
 16777215
176
     1
 74
     0
176
     1
 91
        4
176
     1
 64
     7
176
     1
 65
   257
176
     1
 75
     1
176
     1
175
     1
176
     1
 42
1.0
176
     1
 92
        0
176
     1
 66
     7
176
     1
 43
1.0
176
     1
 76
     1
176
     1
 77
     6
176
     1
 78
     2
176
     1
 67
     7
176
     1
 79
     5
176
     1
170
     0
176
     1
171
     0
176
     1
290
     0
176
     1
 93
       13
176
     1
 44
0.0
176
     1
173
     0
176
     1
  0
VISUALSTYLE
  5
2E
102
{ACAD_REACTORS
330
2A
102
}
330
2A
100
AcDbVisualStyle
  2
GouraudWithEdges
 70
     3
177
     2
291
     1
 71
     2
176
     1
 72
     2
176
     1
 73
     1
176
     1
 90
        2
176
     1
 40
-0.6
176
     1
 41
30.0
176
     1
 62
     5
 63
     7
421
 16777215
176
     1
 74
     1
176
     1
 91
        4
176
     1
 64
     7
176
     1
 65
   257
176
     1
 75
     1
176
     1
175
     1
176
     1
 42
1.0
176
     1
 92
        0
176
     1
 66
   257
176
     1
 43
1.0
176
     1
 76
     1
176
     1
 77
     6
176
     1
 78
     2
176
     1
 67
     7
176
     1
 79
     5
176
     1
170
     0
176
     1
171
     0
176
     1
290
     0
176
     1
 93
       13
176
     1
 44
0.0
176
     1
173
     0
176
     1
  0
VISUALSTYLE
  5
38
102
{ACAD_REACTORS
330
2A
102
}
330
2A
100
AcDbVisualStyle
  2
Linepattern
 70
    14
177
     2
291
     1
 71
     2
176
     1
 72
     2
176
     1
 73
     0
176
     1
 90
        0
176
     1
 40
-0.6
176
     1
 41
-30.0
176
     1
 62
     5
 63
     7
421
 16777215
176
     1
 74
     1
176
     1
 91
        4
176
     1
 64
     7
176
     1
 65
   257
176
     1
 75
     7
176
     1
175
     7
176
     1
 42
1.0
176
     1
 92
        8
176
     1
 66
     7
176
     1
 43
1.0
176
     1
 76
     1
176
     1
 77
     6
176
     1
 78
     2
176
     1
 67
     7
176
     1
 79
     5
176
     1
170
     0
176
     1
171
     0
176
     1
290
     0
176
     1
 93
        1
176
     1
 44
0.0
176
     1
173
     0
176
     1
  0
VISUALSTYLE
  5
33
102
{ACAD_REACTORS
330
2A
102
}
330
2A
100
AcDbVisualStyle
  2
Realistic
 70
     8
177
     2
291
     0
 71
     2
176
     1
 72
     2
176
     1
 73
     0
176
     1
 90
        0
176
     1
 40
-0.6
176
     1
 41
-30.0
176
     1
 62
     5
 63
     7
421
 16777215
176
     1
 74
     1
176
     1
 91
        0
176
     1
 64
     7
176
     1
 65
   257
176
     1
 75
     1
176
     1
175
     1
176
     1
 42
1.0
176
     1
 92
        8
176
     1
 66
     8
424
  7895160
176
     1
 43
1.0
176
     1
 76
     1
176
     1
 77
     6
176
     1
 78
     2
176
     1
 67
     7
176
     1
 79
     5
176
     1
170
     0
176
     1
171
     0
176
     1
290
     0
176
     1
 93
       13
176
     1
 44
0.0
176
     1
173
     0
176
     1
  0
VISUALSTYLE
  5
37
102
{ACAD_REACTORS
330
2A
102
}
330
2A
100
AcDbVisualStyle
  2
Thicken
 70
    13
177
     2
291
     1
 71
     2
176
     1
 72
     2
176
     1
 73
     0
176
     1
 90
        0
176
     1
 40
-0.6
176
     1
 41
-30.0
176
     1
 62
     5
 63
     7
421
 16777215
176
     1
 74
     1
176
     1
 91
        4
176
     1
 64
     7
176
     1
 65
   257
176
     1
 75
     1
176
     1
175
     1
176
     1
 42
1.0
176
     1
 92
       12
176
     1
 66
     7
176
     1
 43
1.0
176
     1
 76
     1
176
     1
 77
     6
176
     1
 78
     2
176
     1
 67
     7
176
     1
 79
     5
176
     1
170
     0
176
     1
171
     0
176
     1
290
     0
176
     1
 93
        1
176
     1
 44
0.0
176
     1
173
     0
176
     1
  0
ENDSEC
0
EOF
