  0
SECTION
  2
HEADER
  9
$ACADVER
  1
AC1024
  9
$ACADMAINTVER
 70
     6
  9
$DWGCODEPAGE
  3
ANSI_1252
  9
$INSBASE
 10
0.0
 20
0.0
 30
0.0
  9
$EXTMIN
 10
-20362.0901964
 20
-20226.4355913
 30
0.0
  9
$EXTMAX
 10
3026657.58962
 20
3023372.45251
 30
0.0
  9
$LIMMIN
 10
-20362.0901964
 20
-20226.4355913
  9
$LIMMAX
 10
3026657.58962
 20
3023372.45251
  9
$ORTHOMODE
 70
     0
  9
$REGENMODE
 70
     1
  9
$FILLMODE
 70
     1
  9
$QTEXTMODE
 70
     0
  9
$MIRRTEXT
 70
     1
  9
$LTSCALE
 40
1.0
  9
$ATTMODE
 70
     1
  9
$TEXTSIZE
 40
2.5
  9
$TRACEWID
 40
1.0
  9
$TEXTSTYLE
  7
Standard
  9
$CLAYER
  8
Outline
  9
$CELTYPE
  6
ByLayer
  9
$CECOLOR
 62
   256
  9
$CELTSCALE
 40
1.0
  9
$DISPSILH
 70
     0
  9
$DIMSCALE
 40
1.0
  9
$DIMASZ
 40
2.5
  9
$DIMEXO
 40
0.625
  9
$DIMDLI
 40
3.75
  9
$DIMRND
 40
0.0
  9
$DIMDLE
 40
0.0
  9
$DIMEXE
 40
1.25
  9
$DIMTP
 40
0.0
  9
$DIMTM
 40
0.0
  9
$DIMTXT
 40
2.5
  9
$DIMCEN
 40
2.5
  9
$DIMTSZ
 40
0.0
  9
$DIMTOL
 70
     0
  9
$DIMLIM
 70
     0
  9
$DIMTIH
 70
     0
  9
$DIMTOH
 70
     0
  9
$DIMSE1
 70
     0
  9
$DIMSE2
 70
     0
  9
$DIMTAD
 70
     1
  9
$DIMZIN
 70
     8
  9
$DIMBLK
  1

  9
$DIMASO
 70
     1
  9
$DIMSHO
 70
     1
  9
$DIMPOST
  1

  9
$DIMAPOST
  1

  9
$DIMALT
 70
     0
  9
$DIMALTD
 70
     3
  9
$DIMALTF
 40
0.03937007874016
  9
$DIMLFAC
 40
1.0
  9
$DIMTOFL
 70
     1
  9
$DIMTVP
 40
0.0
  9
$DIMTIX
 70
     0
  9
$DIMSOXD
 70
     0
  9
$DIMSAH
 70
     0
  9
$DIMBLK1
  1

  9
$DIMBLK2
  1

  9
$DIMSTYLE
  2
ISO-25
  9
$DIMCLRD
 70
     0
  9
$DIMCLRE
 70
     0
  9
$DIMCLRT
 70
     0
  9
$DIMTFAC
 40
1.0
  9
$DIMGAP
 40
0.625
  9
$DIMJUST
 70
     0
  9
$DIMSD1
 70
     0
  9
$DIMSD2
 70
     0
  9
$DIMTOLJ
 70
     0
  9
$DIMTZIN
 70
     8
  9
$DIMALTZ
 70
     0
  9
$DIMALTTZ
 70
     0
  9
$DIMUPT
 70
     0
  9
$DIMDEC
 70
     2
  9
$DIMTDEC
 70
     2
  9
$DIMALTU
 70
     2
  9
$DIMALTTD
 70
     3
  9
$DIMTXSTY
  7
Standard
  9
$DIMAUNIT
 70
     0
  9
$DIMADEC
 70
     0
  9
$DIMALTRND
 40
0.0
  9
$DIMAZIN
 70
     0
  9
$DIMDSEP
 70
    44
  9
$DIMATFIT
 70
     3
  9
$DIMFRAC
 70
     0
  9
$DIMLDRBLK
  1

  9
$DIMLUNIT
 70
     2
  9
$DIMLWD
 70
    -2
  9
$DIMLWE
 70
    -2
  9
$DIMTMOVE
 70
     0
  9
$DIMFXL
 40
1.0
  9
$DIMFXLON
 70
     0
  9
$DIMJOGANG
 40
0.7853981633974483
  9
$DIMTFILL
 70
     0
  9
$DIMTFILLCLR
 70
     0
  9
$DIMARCSYM
 70
     0
  9
$DIMLTYPE
  6

  9
$DIMLTEX1
  6

  9
$DIMLTEX2
  6

  9
$DIMTXTDIRECTION
 70
     0
  9
$LUNITS
 70
     2
  9
$LUPREC
 70
     4
  9
$SKETCHINC
 40
1.0
  9
$FILLETRAD
 40
10.0
  9
$AUNITS
 70
     0
  9
$AUPREC
 70
     0
  9
$MENU
  1
.
  9
$ELEVATION
 40
0.0
  9
$PELEVATION
 40
0.0
  9
$THICKNESS
 40
0.0
  9
$LIMCHECK
 70
     0
  9
$CHAMFERA
 40
10.0
  9
$CHAMFERB
 40
10.0
  9
$CHAMFERC
 40
20.0
  9
$CHAMFERD
 40
0.0
  9
$SKPOLY
 70
     0
  9
$TDCREATE
 40
2456231.748506945
  9
$TDUCREATE
 40
2456231.373506945
  9
$TDUPDATE
 40
2456231.748506945
  9
$TDUUPDATE
 40
2456231.373506945
  9
$TDINDWG
 40
0.0000000116
  9
$TDUSRTIMER
 40
0.0000000116
  9
$USRTIMER
 70
     1
  9
$ANGBASE
 50
0.0
  9
$ANGDIR
 70
     0
  9
$PDMODE
 70
     0
  9
$PDSIZE
 40
0.0
  9
$PLINEWID
 40
0.0
  9
$SPLFRAME
 70
     0
  9
$SPLINETYPE
 70
     6
  9
$SPLINESEGS
 70
     8
  9
$HANDSEED
  5
6F
  9
$SURFTAB1
 70
     6
  9
$SURFTAB2
 70
     6
  9
$SURFTYPE
 70
     6
  9
$SURFU
 70
     6
  9
$SURFV
 70
     6
  9
$UCSBASE
  2

  9
$UCSNAME
  2

  9
$UCSORG
 10
0.0
 20
0.0
 30
0.0
  9
$UCSXDIR
 10
1.0
 20
0.0
 30
0.0
  9
$UCSYDIR
 10
0.0
 20
1.0
 30
0.0
  9
$UCSORTHOREF
  2

  9
$UCSORTHOVIEW
 70
     0
  9
$UCSORGTOP
 10
0.0
 20
0.0
 30
0.0
  9
$UCSORGBOTTOM
 10
0.0
 20
0.0
 30
0.0
  9
$UCSORGLEFT
 10
0.0
 20
0.0
 30
0.0
  9
$UCSORGRIGHT
 10
0.0
 20
0.0
 30
0.0
  9
$UCSORGFRONT
 10
0.0
 20
0.0
 30
0.0
  9
$UCSORGBACK
 10
0.0
 20
0.0
 30
0.0
  9
$PUCSBASE
  2

  9
$PUCSNAME
  2

  9
$PUCSORG
 10
0.0
 20
0.0
 30
0.0
  9
$PUCSXDIR
 10
1.0
 20
0.0
 30
0.0
  9
$PUCSYDIR
 10
0.0
 20
1.0
 30
0.0
  9
$PUCSORTHOREF
  2

  9
$PUCSORTHOVIEW
 70
     0
  9
$PUCSORGTOP
 10
0.0
 20
0.0
 30
0.0
  9
$PUCSORGBOTTOM
 10
0.0
 20
0.0
 30
0.0
  9
$PUCSORGLEFT
 10
0.0
 20
0.0
 30
0.0
  9
$PUCSORGRIGHT
 10
0.0
 20
0.0
 30
0.0
  9
$PUCSORGFRONT
 10
0.0
 20
0.0
 30
0.0
  9
$PUCSORGBACK
 10
0.0
 20
0.0
 30
0.0
  9
$USERI1
 70
     0
  9
$USERI2
 70
     0
  9
$USERI3
 70
     0
  9
$USERI4
 70
     0
  9
$USERI5
 70
     0
  9
$USERR1
 40
0.0
  9
$USERR2
 40
0.0
  9
$USERR3
 40
0.0
  9
$USERR4
 40
0.0
  9
$USERR5
 40
0.0
  9
$WORLDVIEW
 70
     1
  9
$SHADEDGE
 70
     3
  9
$SHADEDIF
 70
    70
  9
$TILEMODE
 70
     1
  9
$MAXACTVP
 70
    64
  9
$PINSBASE
 10
0.0
 20
0.0
 30
0.0
  9
$PLIMCHECK
 70
     0
  9
$PEXTMIN
 10
1.000000000000000E+20
 20
1.000000000000000E+20
 30
1.000000000000000E+20
  9
$PEXTMAX
 10
-1.000000000000000E+20
 20
-1.000000000000000E+20
 30
-1.000000000000000E+20
  9
$PLIMMIN
 10
0.0
 20
0.0
  9
$PLIMMAX
 10
420.0
 20
297.0
  9
$UNITMODE
 70
     0
  9
$VISRETAIN
 70
     1
  9
$PLINEGEN
 70
     0
  9
$PSLTSCALE
 70
     1
  9
$TREEDEPTH
 70
  3020
  9
$CMLSTYLE
  2
Standard
  9
$CMLJUST
 70
     0
  9
$CMLSCALE
 40
20.0
  9
$PROXYGRAPHICS
 70
     1
  9
$MEASUREMENT
 70
     1
  9
$CELWEIGHT
370
    -1
  9
$ENDCAPS
280
     0
  9
$JOINSTYLE
280
     0
  9
$LWDISPLAY
290
     0
  9
$INSUNITS
 70
     4
  9
$HYPERLINKBASE
  1

  9
$STYLESHEET
  1

  9
$XEDIT
290
     1
  9
$CEPSNTYPE
380
     0
  9
$PSTYLEMODE
290
     1
  9
$FINGERPRINTGUID
  2
{92905EEA-4798-D3AF-0738-BBE039DCC74E}
  9
$VERSIONGUID
  2
{FAEB1C32-E019-11D5-929B-00C0DF256EC4}
  9
$EXTNAMES
290
     1
  9
$PSVPSCALE
 40
0.0
  9
$OLESTARTUP
290
     0
  9
$SORTENTS
280
   127
  9
$INDEXCTL
280
     0
  9
$HIDETEXT
280
     1
  9
$XCLIPFRAME
280
     2
  9
$HALOGAP
280
     0
  9
$OBSCOLOR
 70
   257
  9
$OBSLTYPE
280
     0
  9
$INTERSECTIONDISPLAY
280
     0
  9
$INTERSECTIONCOLOR
 70
   257
  9
$DIMASSOC
280
     2
  9
$PROJECTNAME
  1

  9
$CAMERADISPLAY
290
     0
  9
$LENSLENGTH
 40
50.0
  9
$CAMERAHEIGHT
 40
0.0
  9
$STEPSPERSEC
 40
2.0
  9
$STEPSIZE
 40
6.0
  9
$3DDWFPREC
 40
2.0
  9
$PSOLWIDTH
 40
5.0
  9
$PSOLHEIGHT
 40
80.0
  9
$LOFTANG1
 40
1.570796326794897
  9
$LOFTANG2
 40
1.570796326794897
  9
$LOFTMAG1
 40
0.0
  9
$LOFTMAG2
 40
0.0
  9
$LOFTPARAM
 70
     7
  9
$LOFTNORMALS
280
     1
  9
$LATITUDE
 40
37.795
  9
$LONGITUDE
 40
-122.394
  9
$NORTHDIRECTION
 40
0.0
  9
$TIMEZONE
 70
 -8000
  9
$LIGHTGLYPHDISPLAY
280
     1
  9
$TILEMODELIGHTSYNCH
280
     1
  9
$CMATERIAL
347
3C
  9
$SOLIDHIST
280
     1
  9
$SHOWHIST
280
     1
  9
$DWFFRAME
280
     2
  9
$DGNFRAME
280
     2
  9
$REALWORLDSCALE
290
     1
  9
$INTERFERECOLOR
 62
   256
  9
$CSHADOW
280
     0
  9
$SHADOWPLANELOCATION
 40
0.0
  0
ENDSEC
  0
SECTION
  2
CLASSES
  0
CLASS
  1
ACDBDICTIONARYWDFLT
  2
AcDbDictionaryWithDefault
  3
ObjectDBX Classes
 90
        0
 91
        4
280
     0
281
     0
  0
CLASS
  1
VISUALSTYLE
  2
AcDbVisualStyle
  3
ObjectDBX Classes
 90
     4095
 91
        4
280
     0
281
     0
  0
CLASS
  1
MATERIAL
  2
AcDbMaterial
  3
ObjectDBX Classes
 90
     1153
 91
        4
280
     0
281
     0
  0
CLASS
  1
SUN
  2
AcDbSun
  3
SCENEOE
 90
     1024
 91
        4
280
     0
281
     0
  0
ENDSEC
  0
SECTION
  2
TABLES
  0
TABLE
  2
VPORT
  5
8
330
0
100
AcDbSymbolTable
 70
     1
  0
VPORT
  5
29
330
8
100
AcDbSymbolTableRecord
100
AcDbViewportTableRecord
  2
*Active
 70
     0
 10
0.0
 20
0.0
 11
1.0
 21
1.0
 12
360.5069142256372
 22
77.37740091485402
 13
0.0
 23
0.0
 14
10.0
 24
10.0
 15
10.0
 25
10.0
 16
0.0
 26
0.0
 36
1.0
 17
0.0
 27
0.0
 37
0.0
 40
643.00113180099
 41
2.116173120728929
 42
50.0
 43
0.0
 44
0.0
 50
0.0
 51
0.0
 71
     0
 72
   100
 73
     1
 74
     3
 75
     0
 76
     0
 77
     0
 78
     0
281
     0
 65
     1
110
0.0
120
0.0
130
0.0
111
1.0
121
0.0
131
0.0
112
0.0
122
1.0
132
0.0
 79
     0
146
0.0
 60
     3
 61
     5
292
     1
282
     1
141
0.0
142
0.0
 63
   250
361
3F
  0
ENDTAB
  0
TABLE
  2
LTYPE
  5
5
330
0
100
AcDbSymbolTable
 70
     7
  0
LTYPE
  5
14
330
5
100
AcDbSymbolTableRecord
100
AcDbLinetypeTableRecord
  2
ByBlock
 70
     0
  3

 72
    65
 73
     0
 40
0.0
  0
LTYPE
  5
15
330
5
100
AcDbSymbolTableRecord
100
AcDbLinetypeTableRecord
  2
ByLayer
 70
     0
  3

 72
    65
 73
     0
 40
0.0
  0
LTYPE
  5
16
330
5
100
AcDbSymbolTableRecord
100
AcDbLinetypeTableRecord
  2
Continuous
 70
     0
  3
Solid line
 72
    65
 73
     0
 40
0.0
  0
LTYPE
  5
40
330
5
100
AcDbSymbolTableRecord
100
AcDbLinetypeTableRecord
  2
DOT
 70
     0
  3
Dot . . . . . . . . . . . . . . . . . . . . . . . .
 72
    65
 73
     2
 40
2.032
 49
1.016
 74
     0
 49
-1.016
 74
     0
  0
LTYPE
  5
41
330
5
100
AcDbSymbolTableRecord
100
AcDbLinetypeTableRecord
  2
CENTER
 70
     0
  3
Center ____ _ ____ _ ____ _ ____ _ ____ _ ____
 72
    65
 73
     4
 40
13.208
 49
8.128
 74
     0
 49
-1.524
 74
     0
 49
2.032
 74
     0
 49
-1.524
 74
     0
  0
LTYPE
  5
42
330
5
100
AcDbSymbolTableRecord
100
AcDbLinetypeTableRecord
  2
HIDDEN2
 70
     0
  3
Hidden (.5x) _ _ _ _ _ _ _ _ _ _ _ _ _ _ _ _ _
 72
    65
 73
     2
 40
4.762499999999999
 49
3.175
 74
     0
 49
-1.5875
 74
     0
  0
LTYPE
  5
43
330
5
100
AcDbSymbolTableRecord
100
AcDbLinetypeTableRecord
  2
DASHED
 70
     0
  3
Dashed __ __ __ __ __ __ __ __ __ __ __ __ __ _
 72
    65
 73
     2
 40
9.652
 49
8.128
 74
     0
 49
-1.524
 74
     0
  0
LTYPE
  5
44
330
5
100
AcDbSymbolTableRecord
100
AcDbLinetypeTableRecord
  2
PHANTOM2
 70
     0
  3
Phantom (.5x) ___ _ _ ___ _ _ ___ _ _ ___ _ _
 72
    65
 73
     6
 40
14.732
 49
8.128
 74
     0
 49
-1.524
 74
     0
 49
1.016
 74
     0
 49
-1.524
 74
     0
 49
1.016
 74
     0
 49
-1.524
 74
     0
  0
LTYPE
  5
45
330
5
100
AcDbSymbolTableRecord
100
AcDbLinetypeTableRecord
  2
DASHDOT
 70
     0
  3
Dash dot __ . __ . __ . __ . __ . __ . __ . __
 72
    65
 73
     4
 40
11.176
 49
8.128
 74
     0
 49
-1.524
 74
     0
 49
0.0
 74
     0
 49
-1.524
 74
     0
  0
ENDTAB
  0
TABLE
  2
LAYER
  5
2
330
0
100
AcDbSymbolTable
 70
     7
  0
LAYER
  5
10
330
2
100
AcDbSymbolTableRecord
100
AcDbLayerTableRecord
  2
0
 70
     0
 62
     5
  6
Continuous
370
    -3
390
F
347
3E
  0
LAYER
  5
46
330
2
100
AcDbSymbolTableRecord
100
AcDbLayerTableRecord
  2
Default
 70
     0
 62
     255
  6
Continuous
370
    -3
390
F
347
3E
  0
LAYER
  5
78
330
2
100
AcDbSymbolTableRecord
100
AcDbLayerTableRecord
  2
Mirrors
 70
0
 62
255
  6
Continuous
370
    -3
390
F
347
3E
  0
LAYER
  5
b0
330
2
100
AcDbSymbolTableRecord
100
AcDbLayerTableRecord
  2
text
 70
0
 62
255
  6
Continuous
370
    -3
390
F
347
3E
  0
LAYER
  5
19a
330
2
100
AcDbSymbolTableRecord
100
AcDbLayerTableRecord
  2
main_beam
 70
0
 62
1
  6
Continuous
370
    -3
390
F
347
3E
  0
LAYER
  5
1cf
330
2
100
AcDbSymbolTableRecord
100
AcDbLayerTableRecord
  2
aux_beam
 70
0
 62
3
  6
Continuous
370
    -3
390
F
347
3E
  0
LAYER
  5
1d0
330
2
100
AcDbSymbolTableRecord
100
AcDbLayerTableRecord
  2
pox_beam
 70
0
 62
5
  6
Continuous
370
    -3
390
F
347
3E
  0
LAYER
  5
1d1
330
2
100
AcDbSymbolTableRecord
100
AcDbLayerTableRecord
  2
stray_beam
 70
0
 62
3
  6
Continuous
370
    -3
390
F
347
3E
  0
LAYER
  5
272
330
2
100
AcDbSymbolTableRecord
100
AcDbLayerTableRecord
  2
poy_beam
 70
0
 62
5
  6
Continuous
370
    -3
390
F
347
3E
  0
LAYER
  5
273
330
2
100
AcDbSymbolTableRecord
100
AcDbLayerTableRecord
  2
main_beam_width
 70
0
 62
6
  6
Continuous
370
    -3
390
F
347
3E
  0
LAYER
  5
2dc
330
2
100
AcDbSymbolTableRecord
100
AcDbLayerTableRecord
  2
Vacuum
 70
0
 62
255
  6
Continuous
370
    -3
390
F
347
3E
  0
LAYER
  5
300
330
2
100
AcDbSymbolTableRecord
100
AcDbLayerTableRecord
  2
poxpoy_beam
 70
0
 62
5
  6
Continuous
370
    -3
390
F
347
3E
  0
LAYER
  5
30b
330
2
100
AcDbSymbolTableRecord
100
AcDbLayerTableRecord
  2
poy_beam_width
 70
0
 62
4
  6
Continuous
370
    -3
390
F
347
3E
  0
LAYER
  5
30c
330
2
100
AcDbSymbolTableRecord
100
AcDbLayerTableRecord
  2
poxpoy_beam_width
 70
0
 62
4
  6
Continuous
370
    -3
390
F
347
3E
  0
LAYER
  5
321
330
2
100
AcDbSymbolTableRecord
100
AcDbLayerTableRecord
  2
pox_beam_width
 70
0
 62
4
  6
Continuous
370
    -3
390
F
347
3E
  0
LAYER
  5
322
330
2
100
AcDbSymbolTableRecord
100
AcDbLayerTableRecord
  2
stray_beam_width
 70
0
 62
4
  6
Continuous
370
    -3
390
F
347
3E
  0
LAYER
  5
323
330
2
100
AcDbSymbolTableRecord
100
AcDbLayerTableRecord
  2
aux_beam_width
 70
0
 62
4
  6
Continuous
370
    -3
390
F
347
3E
  0
ENDTAB
  0
TABLE
  2
STYLE
  5
3
330
0
100
AcDbSymbolTable
 70
    33
  0
STYLE
  5
11
330
3
100
AcDbSymbolTableRecord
100
AcDbTextStyleTableRecord
  2
Standard
 70
     0
 40
0.0
 41
1.0
 50
0.0
 71
     0
 42
2.5
  3
txt
  4

  0
ENDTAB
  0
TABLE
  2
VIEW
  5
6
330
0
100
AcDbSymbolTable
 70
     0
  0
ENDTAB
  0
TABLE
  2
UCS
  5
7
330
0
100
AcDbSymbolTable
 70
     0
  0
ENDTAB
  0
TABLE
  2
APPID
  5
9
330
0
100
AcDbSymbolTable
 70
     1
  0
APPID
  5
12
330
9
100
AcDbSymbolTableRecord
100
AcDbRegAppTableRecord
  2
ACAD
 70
     0
  0
ENDTAB
  0
TABLE
  2
DIMSTYLE
  5
A
330
0
100
AcDbSymbolTable
 70
     1
100
AcDbDimStyleTable
  0
DIMSTYLE
105
27
330
A
100
AcDbSymbolTableRecord
100
AcDbDimStyleTableRecord
  2
ISO-25
 70
     0
 41
2.5
 42
0.625
 43
3.75
 44
1.25
 73
     0
 74
     0
 77
     1
 78
     8
140
2.5
141
2.5
143
0.03937007874016
147
0.625
171
     3
172
     1
178
     0
271
     2
272
     2
274
     3
278
    44
283
     0
284
     8
340
11
  0
ENDTAB
  0
TABLE
  2
BLOCK_RECORD
  5
1
330
0
100
AcDbSymbolTable
 70
     1
  0
BLOCK_RECORD
  5
1F
330
1
100
AcDbSymbolTableRecord
100
AcDbBlockTableRecord
  2
*Model_Space
340
22
 70
     0
280
     1
281
     0
  0
BLOCK_RECORD
  5
1B
330
1
100
AcDbSymbolTableRecord
100
AcDbBlockTableRecord
  2
*Paper_Space
340
1E
 70
     0
280
     1
281
     0
  0
BLOCK_RECORD
  5
23
330
1
100
AcDbSymbolTableRecord
100
AcDbBlockTableRecord
  2
*Paper_Space0
340
26
 70
     0
280
     1
281
     0
  0
ENDTAB
    0
ENDSEC
  0
SECTION
  2
BLOCKS
  0
BLOCK
  5
20
330
1F
100
AcDbEntity
  8
0
100
AcDbBlockBegin
  2
*Model_Space
 70
     0
 10
0.0
 20
0.0
 30
0.0
  3
*Model_Space
  1

  0
ENDBLK
  5
21
330
1F
100
AcDbEntity
  8
0
100
AcDbBlockEnd
  0
BLOCK
  5
1C
330
1B
100
AcDbEntity
 67
     1
  8
0
100
AcDbBlockBegin
  2
*Paper_Space
 70
     0
 10
0.0
 20
0.0
 30
0.0
  3
*Paper_Space
  1

  0
ENDBLK
  5
1D
330
1B
100
AcDbEntity
 67
     1
  8
0
100
AcDbBlockEnd
  0
BLOCK
  5
24
330
23
100
AcDbEntity
  8
0
100
AcDbBlockBegin
  2
*Paper_Space0
 70
     0
 10
0.0
 20
0.0
 30
0.0
  3
*Paper_Space0
  1

  0
ENDBLK
  5
25
330
23
100
AcDbEntity
  8
0
100
AcDbBlockEnd
  0
ENDSEC
  0
SECTION
  2
ENTITIES
  0
LINE
  5
79
330
1F
100
AcDbEntity
  8
Mirrors
100
AcDbLine
 10
-19461.7355526
 20
101.717441151
 30
0.0
  11
-19557.3700711
 21
101.4459564
 31
0.0
  0
LINE
  5
7a
330
1F
100
AcDbEntity
  8
Mirrors
100
AcDbLine
 10
-19566.8099188
 20
351.420166136
 30
0.0
  11
-19462.4452432
 21
351.716433827
 31
0.0
  0
LINE
  5
7b
330
1F
100
AcDbEntity
  8
Mirrors
100
AcDbLine
 10
-19472.4452029
 20
351.688046205
 30
0.0
  11
-19471.7355123
 21
101.689053529
 31
0.0
  0
LWPOLYLINE
  5
7c
330
1F
100
AcDbEntity
  8
Mirrors
100
AcDbPolyline
 90
60
 70
0
43
0.0
 10
-19462.4452432
 20
351.716433827
 10
-19462.4341629
 20
347.406103086
 10
-19462.4230421
 20
343.09577246
 10
-19462.4118808
 20
338.78544195
 10
-19462.4006788
 20
334.475111554
 10
-19462.3894364
 20
330.164781274
 10
-19462.3781533
 20
325.854451108
 10
-19462.3668298
 20
321.544121058
 10
-19462.3554656
 20
317.233791123
 10
-19462.344061
 20
312.923461303
 10
-19462.3326157
 20
308.613131598
 10
-19462.3211299
 20
304.302802008
 10
-19462.3096036
 20
299.992472534
 10
-19462.2980367
 20
295.682143174
 10
-19462.2864292
 20
291.37181393
 10
-19462.2747812
 20
287.061484801
 10
-19462.2630926
 20
282.751155787
 10
-19462.2513635
 20
278.440826888
 10
-19462.2395939
 20
274.130498104
 10
-19462.2277836
 20
269.820169435
 10
-19462.2159329
 20
265.509840881
 10
-19462.2040415
 20
261.199512443
 10
-19462.1921096
 20
256.88918412
 10
-19462.1801372
 20
252.578855911
 10
-19462.1681242
 20
248.268527818
 10
-19462.1560706
 20
243.95819984
 10
-19462.1439765
 20
239.647871977
 10
-19462.1318419
 20
235.33754423
 10
-19462.1196667
 20
231.027216597
 10
-19462.1074509
 20
226.716889079
 10
-19462.1074509
 20
226.716889079
 10
-19462.0951946
 20
222.406561677
 10
-19462.0828977
 20
218.09623439
 10
-19462.0705603
 20
213.785907218
 10
-19462.0581823
 20
209.475580161
 10
-19462.0457638
 20
205.165253219
 10
-19462.0333047
 20
200.854926392
 10
-19462.020805
 20
196.54459968
 10
-19462.0082648
 20
192.234273084
 10
-19461.9956841
 20
187.923946602
 10
-19461.9830628
 20
183.613620236
 10
-19461.9704009
 20
179.303293985
 10
-19461.9576985
 20
174.992967849
 10
-19461.9449555
 20
170.682641828
 10
-19461.932172
 20
166.372315922
 10
-19461.9193479
 20
162.061990132
 10
-19461.9064833
 20
157.751664456
 10
-19461.8935781
 20
153.441338896
 10
-19461.8806323
 20
149.131013451
 10
-19461.867646
 20
144.82068812
 10
-19461.8546192
 20
140.510362905
 10
-19461.8415518
 20
136.200037805
 10
-19461.8284438
 20
131.889712821
 10
-19461.8152953
 20
127.579387951
 10
-19461.8021063
 20
123.269063196
 10
-19461.7888766
 20
118.958738557
 10
-19461.7756065
 20
114.648414033
 10
-19461.7622957
 20
110.338089624
 10
-19461.7489445
 20
106.02776533
 10
-19461.7355526
 20
101.717441151
  0
LINE
  5
7d
330
1F
100
AcDbEntity
  8
Mirrors
100
AcDbLine
 10
-19557.3700711
 20
101.4459564
 30
0.0
  11
-19566.8099188
 21
351.420166136
 31
0.0
  0
LINE
  5
7e
330
1F
100
AcDbEntity
  8
Mirrors
100
AcDbLine
 10
3026507.10965
 20
93.6192715165
 30
0.0
  11
3026656.62969
 21
93.6192715165
 31
0.0
  0
LINE
  5
7f
330
1F
100
AcDbEntity
  8
Mirrors
100
AcDbLine
 10
3026657.58962
 20
-126.380728483
 30
0.0
  11
3026507.10965
 21
-126.380728483
 31
0.0
  0
LINE
  5
80
330
1F
100
AcDbEntity
  8
Mirrors
100
AcDbLine
 10
3026522.10965
 20
-126.380728483
 30
0.0
  11
3026522.10965
 21
93.6192715165
 31
0.0
  0
LWPOLYLINE
  5
81
330
1F
100
AcDbEntity
  8
Mirrors
100
AcDbPolyline
 90
60
 70
0
43
0.0
 10
3026507.10965
 20
-126.380728483
 10
3026507.10987
 20
-122.587625035
 10
3026507.11008
 20
-118.794521587
 10
3026507.11028
 20
-115.001418139
 10
3026507.11047
 20
-111.20831469
 10
3026507.11066
 20
-107.415211242
 10
3026507.11084
 20
-103.622107794
 10
3026507.11101
 20
-99.8290043455
 10
3026507.11117
 20
-96.0359008973
 10
3026507.11132
 20
-92.242797449
 10
3026507.11147
 20
-88.4496940007
 10
3026507.11161
 20
-84.6565905524
 10
3026507.11174
 20
-80.8634871042
 10
3026507.11187
 20
-77.0703836559
 10
3026507.11199
 20
-73.2772802076
 10
3026507.1121
 20
-69.4841767593
 10
3026507.1122
 20
-65.6910733111
 10
3026507.11229
 20
-61.8979698628
 10
3026507.11238
 20
-58.1048664145
 10
3026507.11246
 20
-54.3117629662
 10
3026507.11253
 20
-50.5186595179
 10
3026507.1126
 20
-46.7255560697
 10
3026507.11265
 20
-42.9324526214
 10
3026507.1127
 20
-39.1393491731
 10
3026507.11274
 20
-35.3462457248
 10
3026507.11278
 20
-31.5531422766
 10
3026507.1128
 20
-27.7600388283
 10
3026507.11282
 20
-23.96693538
 10
3026507.11283
 20
-20.1738319317
 10
3026507.11284
 20
-16.3807284835
 10
3026507.11284
 20
-16.3807284835
 10
3026507.11283
 20
-12.5876250352
 10
3026507.11282
 20
-8.79452158691
 10
3026507.1128
 20
-5.00141813864
 10
3026507.11278
 20
-1.20831469036
 10
3026507.11274
 20
2.58478875792
 10
3026507.1127
 20
6.37789220619
 10
3026507.11265
 20
10.1709956545
 10
3026507.1126
 20
13.9640991027
 10
3026507.11253
 20
17.757202551
 10
3026507.11246
 20
21.5503059993
 10
3026507.11238
 20
25.3434094476
 10
3026507.11229
 20
29.1365128958
 10
3026507.1122
 20
32.9296163441
 10
3026507.1121
 20
36.7227197924
 10
3026507.11199
 20
40.5158232407
 10
3026507.11187
 20
44.3089266889
 10
3026507.11174
 20
48.1020301372
 10
3026507.11161
 20
51.8951335855
 10
3026507.11147
 20
55.6882370338
 10
3026507.11132
 20
59.4813404821
 10
3026507.11117
 20
63.2744439303
 10
3026507.11101
 20
67.0675473786
 10
3026507.11084
 20
70.8606508269
 10
3026507.11066
 20
74.6537542752
 10
3026507.11047
 20
78.4468577234
 10
3026507.11028
 20
82.2399611717
 10
3026507.11008
 20
86.03306462
 10
3026507.10987
 20
89.8261680683
 10
3026507.10965
 20
93.6192715165
  0
LINE
  5
82
330
1F
100
AcDbEntity
  8
Mirrors
100
AcDbLine
 10
3026656.62969
 20
93.6192715165
 30
0.0
  11
3026657.58962
 21
-126.380728483
 31
0.0
  0
LINE
  5
83
330
1F
100
AcDbEntity
  8
Mirrors
100
AcDbLine
 10
-117.590557088
 20
3023221.97254
 30
0.0
  11
-117.590557088
 21
3023371.49258
 31
0.0
  0
LINE
  5
84
330
1F
100
AcDbEntity
  8
Mirrors
100
AcDbLine
 10
102.409442912
 20
3023372.45251
 30
0.0
  11
102.409442912
 21
3023221.97254
 31
0.0
  0
LINE
  5
85
330
1F
100
AcDbEntity
  8
Mirrors
100
AcDbLine
 10
102.409442912
 20
3023236.97254
 30
0.0
  11
-117.590557088
 21
3023236.97254
 31
0.0
  0
LWPOLYLINE
  5
86
330
1F
100
AcDbEntity
  8
Mirrors
100
AcDbPolyline
 90
60
 70
0
43
0.0
 10
102.409442912
 20
3023221.97254
 10
98.6163394635
 20
3023221.97276
 10
94.8232360153
 20
3023221.97297
 10
91.030132567
 20
3023221.97317
 10
87.2370291187
 20
3023221.97336
 10
83.4439256704
 20
3023221.97355
 10
79.6508222222
 20
3023221.97373
 10
75.8577187739
 20
3023221.9739
 10
72.0646153256
 20
3023221.97406
 10
68.2715118773
 20
3023221.97421
 10
64.4784084291
 20
3023221.97436
 10
60.6853049808
 20
3023221.9745
 10
56.8922015325
 20
3023221.97463
 10
53.0990980842
 20
3023221.97476
 10
49.305994636
 20
3023221.97488
 10
45.5128911877
 20
3023221.97499
 10
41.7197877394
 20
3023221.97509
 10
37.9266842911
 20
3023221.97518
 10
34.1335808429
 20
3023221.97527
 10
30.3404773946
 20
3023221.97535
 10
26.5473739463
 20
3023221.97542
 10
22.754270498
 20
3023221.97549
 10
18.9611670498
 20
3023221.97554
 10
15.1680636015
 20
3023221.97559
 10
11.3749601532
 20
3023221.97563
 10
7.58185670492
 20
3023221.97567
 10
3.78875325665
 20
3023221.97569
 10
-0.00435019162677
 20
3023221.97571
 10
-3.7974536399
 20
3023221.97572
 10
-7.59055708818
 20
3023221.97573
 10
-7.59055708818
 20
3023221.97573
 10
-11.3836605365
 20
3023221.97572
 10
-15.1767639847
 20
3023221.97571
 10
-18.969867433
 20
3023221.97569
 10
-22.7629708813
 20
3023221.97567
 10
-26.5560743296
 20
3023221.97563
 10
-30.3491777778
 20
3023221.97559
 10
-34.1422812261
 20
3023221.97554
 10
-37.9353846744
 20
3023221.97549
 10
-41.7284881227
 20
3023221.97542
 10
-45.5215915709
 20
3023221.97535
 10
-49.3146950192
 20
3023221.97527
 10
-53.1077984675
 20
3023221.97518
 10
-56.9009019158
 20
3023221.97509
 10
-60.694005364
 20
3023221.97499
 10
-64.4871088123
 20
3023221.97488
 10
-68.2802122606
 20
3023221.97476
 10
-72.0733157089
 20
3023221.97463
 10
-75.8664191571
 20
3023221.9745
 10
-79.6595226054
 20
3023221.97436
 10
-83.4526260537
 20
3023221.97421
 10
-87.245729502
 20
3023221.97406
 10
-91.0388329502
 20
3023221.9739
 10
-94.8319363985
 20
3023221.97373
 10
-98.6250398468
 20
3023221.97355
 10
-102.418143295
 20
3023221.97336
 10
-106.211246743
 20
3023221.97317
 10
-110.004350192
 20
3023221.97297
 10
-113.79745364
 20
3023221.97276
 10
-117.590557088
 20
3023221.97254
  0
LINE
  5
87
330
1F
100
AcDbEntity
  8
Mirrors
100
AcDbLine
 10
-117.590557088
 20
3023371.49258
 30
0.0
  11
102.409442912
 21
3023372.45251
 31
0.0
  0
LINE
  5
88
330
1F
100
AcDbEntity
  8
Mirrors
100
AcDbLine
 10
-4699.76391156
 20
393.643713251
 30
0.0
  11
-4604.13709585
 21
394.887475452
 31
0.0
  0
LINE
  5
89
330
1F
100
AcDbEntity
  8
Mirrors
100
AcDbLine
 10
-4592.15631266
 20
145.022157544
 30
0.0
  11
-4696.51258241
 21
143.664856427
 31
0.0
  0
LINE
  5
8a
330
1F
100
AcDbEntity
  8
Mirrors
100
AcDbLine
 10
-4686.51342814
 20
143.794909593
 30
0.0
  11
-4689.76475728
 21
393.773766417
 31
0.0
  0
LWPOLYLINE
  5
8b
330
1F
100
AcDbEntity
  8
Mirrors
100
AcDbPolyline
 90
60
 70
0
43
0.0
 10
-4696.51258241
 20
143.664856427
 10
-4696.74088011
 20
147.972596488
 10
-4696.96312515
 20
152.280415272
 10
-4697.1793185
 20
156.588312768
 10
-4697.38946111
 20
160.896288961
 10
-4697.59355388
 20
165.204343842
 10
-4697.7915977
 20
169.512477397
 10
-4697.9835934
 20
173.820689617
 10
-4698.16954178
 20
178.128980491
 10
-4698.34944361
 20
182.437350009
 10
-4698.52329962
 20
186.745798161
 10
-4698.69111051
 20
191.054324939
 10
-4698.85287692
 20
195.362930333
 10
-4699.0085995
 20
199.671614336
 10
-4699.15827882
 20
203.980376941
 10
-4699.30191543
 20
208.289218139
 10
-4699.43950986
 20
212.598137925
 10
-4699.57106258
 20
216.907136291
 10
-4699.69657404
 20
221.216213233
 10
-4699.81604464
 20
225.525368744
 10
-4699.92947477
 20
229.834602821
 10
-4700.03686475
 20
234.143915458
 10
-4700.1382149
 20
238.453306651
 10
-4700.23352547
 20
242.762776398
 10
-4700.3227967
 20
247.072324695
 10
-4700.40602879
 20
251.38195154
 10
-4700.48322189
 20
255.691656931
 10
-4700.55437613
 20
260.001440865
 10
-4700.6194916
 20
264.311303342
 10
-4700.67856835
 20
268.621244361
 10
-4700.67856835
 20
268.621244361
 10
-4700.7316064
 20
272.931263922
 10
-4700.77860573
 20
277.241362025
 10
-4700.81956628
 20
281.551538671
 10
-4700.85448798
 20
285.861793861
 10
-4700.88337069
 20
290.172127596
 10
-4700.90621426
 20
294.482539879
 10
-4700.92301848
 20
298.793030712
 10
-4700.93378314
 20
303.103600099
 10
-4700.93850795
 20
307.414248042
 10
-4700.93719263
 20
311.724974545
 10
-4700.92983682
 20
316.035779614
 10
-4700.91644016
 20
320.346663252
 10
-4700.89700224
 20
324.657625466
 10
-4700.87152261
 20
328.968666261
 10
-4700.84000079
 20
333.279785643
 10
-4700.80243627
 20
337.590983618
 10
-4700.75882849
 20
341.902260195
 10
-4700.70917687
 20
346.213615381
 10
-4700.65348079
 20
350.525049183
 10
-4700.59173958
 20
354.836561611
 10
-4700.52395254
 20
359.148152673
 10
-4700.45011896
 20
363.45982238
 10
-4700.37023806
 20
367.77157074
 10
-4700.28430904
 20
372.083397764
 10
-4700.19233106
 20
376.395303464
 10
-4700.09430325
 20
380.707287851
 10
-4699.9902247
 20
385.019350936
 10
-4699.88009446
 20
389.331492731
 10
-4699.76391156
 20
393.643713251
  0
LINE
  5
8c
330
1F
100
AcDbEntity
  8
Mirrors
100
AcDbLine
 10
-4604.13709585
 20
394.887475452
 30
0.0
  11
-4592.15631266
 21
145.022157544
 31
0.0
  0
LINE
  5
8d
330
1F
100
AcDbEntity
  8
Mirrors
100
AcDbLine
 10
390.280099826
 20
-19326.7088432
 30
0.0
  11
390.07113176
 21
-19422.3435187
 31
0.0
  0
LINE
  5
8e
330
1F
100
AcDbEntity
  8
Mirrors
100
AcDbLine
 10
140.052652572
 20
-19430.5274251
 30
0.0
  11
140.280696638
 21
-19326.1625781
 31
0.0
  0
LINE
  5
8f
330
1F
100
AcDbEntity
  8
Mirrors
100
AcDbLine
 10
140.258846032
 20
-19336.1625542
 30
0.0
  11
390.25824922
 21
-19336.7088194
 31
0.0
  0
LWPOLYLINE
  5
90
330
1F
100
AcDbEntity
  8
Mirrors
100
AcDbPolyline
 90
60
 70
0
43
0.0
 10
140.280696638
 20
-19326.1625781
 10
144.591028651
 20
-19326.1731522
 10
148.901360752
 20
-19326.1836858
 10
153.211692941
 20
-19326.1941789
 10
157.522025219
 20
-19326.2046314
 10
161.832357586
 20
-19326.2150433
 10
166.142690041
 20
-19326.2254147
 10
170.453022585
 20
-19326.2357455
 10
174.763355218
 20
-19326.2460358
 10
179.073687939
 20
-19326.2562855
 10
183.384020748
 20
-19326.2664947
 10
187.694353647
 20
-19326.2766633
 10
192.004686634
 20
-19326.2867914
 10
196.315019709
 20
-19326.2968789
 10
200.625352874
 20
-19326.3069259
 10
204.935686126
 20
-19326.3169323
 10
209.246019468
 20
-19326.3268981
 10
213.556352898
 20
-19326.3368234
 10
217.866686417
 20
-19326.3467081
 10
222.177020024
 20
-19326.3565523
 10
226.48735372
 20
-19326.366356
 10
230.797687504
 20
-19326.376119
 10
235.108021377
 20
-19326.3858415
 10
239.418355339
 20
-19326.3955235
 10
243.72868939
 20
-19326.4051649
 10
248.039023528
 20
-19326.4147658
 10
252.349357756
 20
-19326.4243261
 10
256.659692072
 20
-19326.4338458
 10
260.970026477
 20
-19326.443325
 10
265.28036097
 20
-19326.4527637
 10
265.28036097
 20
-19326.4527637
 10
269.590695552
 20
-19326.4621618
 10
273.901030223
 20
-19326.4715193
 10
278.211364982
 20
-19326.4808363
 10
282.52169983
 20
-19326.4901127
 10
286.832034767
 20
-19326.4993486
 10
291.142369792
 20
-19326.5085439
 10
295.452704906
 20
-19326.5176987
 10
299.763040108
 20
-19326.5268129
 10
304.073375399
 20
-19326.5358865
 10
308.383710778
 20
-19326.5449196
 10
312.694046247
 20
-19326.5539122
 10
317.004381803
 20
-19326.5628642
 10
321.314717449
 20
-19326.5717756
 10
325.625053183
 20
-19326.5806465
 10
329.935389005
 20
-19326.5894768
 10
334.245724917
 20
-19326.5982666
 10
338.556060916
 20
-19326.6070158
 10
342.866397005
 20
-19326.6157245
 10
347.176733182
 20
-19326.6243926
 10
351.487069448
 20
-19326.6330201
 10
355.797405802
 20
-19326.6416071
 10
360.107742245
 20
-19326.6501536
 10
364.418078776
 20
-19326.6586595
 10
368.728415397
 20
-19326.6671248
 10
373.038752105
 20
-19326.6755496
 10
377.349088903
 20
-19326.6839339
 10
381.659425789
 20
-19326.6922775
 10
385.969762763
 20
-19326.7005807
 10
390.280099826
 20
-19326.7088432
  0
LINE
  5
91
330
1F
100
AcDbEntity
  8
Mirrors
100
AcDbLine
 10
390.07113176
 20
-19422.3435187
 30
0.0
  11
140.052652572
 21
-19430.5274251
 31
0.0
  0
LINE
  5
92
330
1F
100
AcDbEntity
  8
Mirrors
100
AcDbLine
 10
172.532692709
 20
-4581.10373406
 30
0.0
  11
173.714177048
 21
-4485.47612862
 31
0.0
  0
LINE
  5
93
330
1F
100
AcDbEntity
  8
Mirrors
100
AcDbLine
 10
423.802952085
 20
-4479.83513056
 30
0.0
  11
422.51361397
 21
-4584.19226212
 31
0.0
  0
LINE
  5
94
330
1F
100
AcDbEntity
  8
Mirrors
100
AcDbLine
 10
422.637155093
 20
-4574.19302527
 30
0.0
  11
172.656233832
 21
-4571.10449721
 31
0.0
  0
LWPOLYLINE
  5
95
330
1F
100
AcDbEntity
  8
Mirrors
100
AcDbPolyline
 90
60
 70
0
43
0.0
 10
422.51361397
 20
-4584.19226212
 10
418.201406358
 20
-4584.3164069
 10
413.889275772
 20
-4584.43431728
 10
409.5772222
 20
-4584.54599434
 10
405.265245627
 20
-4584.65143912
 10
400.953346042
 20
-4584.75065261
 10
396.641523434
 20
-4584.84363577
 10
392.32977779
 20
-4584.9303895
 10
388.018109101
 20
-4585.01091469
 10
383.706517355
 20
-4585.08521218
 10
379.395002543
 20
-4585.15328275
 10
375.083564655
 20
-4585.21512718
 10
370.772203682
 20
-4585.27074617
 10
366.460919617
 20
-4585.32014042
 10
362.149712451
 20
-4585.36331056
 10
357.838582177
 20
-4585.4002572
 10
353.527528788
 20
-4585.4309809
 10
349.216552277
 20
-4585.45548218
 10
344.905652638
 20
-4585.47376153
 10
340.594829866
 20
-4585.4858194
 10
336.284083955
 20
-4585.4916562
 10
331.973414902
 20
-4585.49127229
 10
327.662822702
 20
-4585.48466801
 10
323.352307351
 20
-4585.47184365
 10
319.041868847
 20
-4585.45279945
 10
314.731507186
 20
-4585.42753564
 10
310.421222367
 20
-4585.39605239
 10
306.111014387
 20
-4585.35834983
 10
301.800883247
 20
-4585.31442806
 10
297.490828944
 20
-4585.26428714
 10
297.490828944
 20
-4585.26428714
 10
293.180851479
 20
-4585.20792709
 10
288.870950852
 20
-4585.14534789
 10
284.561127064
 20
-4585.07654949
 10
280.251380115
 20
-4585.00153177
 10
275.941710008
 20
-4584.92029461
 10
271.632116745
 20
-4584.83283784
 10
267.322600328
 20
-4584.73916124
 10
263.013160761
 20
-4584.63926455
 10
258.703798047
 20
-4584.53314749
 10
254.394512189
 20
-4584.42080973
 10
250.085303194
 20
-4584.30225089
 10
245.776171065
 20
-4584.17747057
 10
241.467115809
 20
-4584.04646832
 10
237.158137431
 20
-4583.90924365
 10
232.849235937
 20
-4583.76579605
 10
228.540411336
 20
-4583.61612494
 10
224.231663633
 20
-4583.46022972
 10
219.922992838
 20
-4583.29810976
 10
215.614398958
 20
-4583.12976436
 10
211.305882002
 20
-4582.95519282
 10
206.997441981
 20
-4582.77439437
 10
202.689078903
 20
-4582.58736821
 10
198.380792779
 20
-4582.39411351
 10
194.07258362
 20
-4582.19462939
 10
189.764451437
 20
-4581.98891493
 10
185.456396242
 20
-4581.77696918
 10
181.148418047
 20
-4581.55879115
 10
176.840516865
 20
-4581.3343798
 10
172.532692709
 20
-4581.10373406
  0
LINE
  5
96
330
1F
100
AcDbEntity
  8
Mirrors
100
AcDbLine
 10
173.714177048
 20
-4485.47612862
 30
0.0
  11
423.802952085
 21
-4479.83513056
 31
0.0
  0
LINE
  5
97
330
1F
100
AcDbEntity
  8
Mirrors
100
AcDbLine
 10
172.235133536
 20
-15694.9556356
 30
0.0
  11
171.226432245
 21
-15790.5852197
 31
0.0
  0
LINE
  5
98
330
1F
100
AcDbEntity
  8
Mirrors
100
AcDbLine
 10
-78.8517423525
 20
-15796.6780719
 30
0.0
  11
-77.7509600738
 21
-15692.3187811
 31
0.0
  0
LINE
  5
99
330
1F
100
AcDbEntity
  8
Mirrors
100
AcDbLine
 10
-77.8564342524
 20
-15702.3182249
 30
0.0
  11
172.129659358
 21
-15704.9550793
 31
0.0
  0
LWPOLYLINE
  5
9a
330
1F
100
AcDbEntity
  8
Mirrors
100
AcDbPolyline
 90
60
 70
0
43
0.0
 10
-77.7509600738
 20
-15692.3187811
 10
-73.4410791589
 20
-15692.3854943
 10
-69.131190379
 20
-15692.4514619
 10
-64.8212937341
 20
-15692.5166839
 10
-60.5113892243
 20
-15692.5811602
 10
-56.2014768494
 20
-15692.6448909
 10
-51.8915566097
 20
-15692.7078759
 10
-47.5816285051
 20
-15692.7701153
 10
-43.2716925355
 20
-15692.8316091
 10
-38.9617487011
 20
-15692.8923573
 10
-34.6517970019
 20
-15692.9523598
 10
-30.3418374377
 20
-15693.0116167
 10
-26.0318700088
 20
-15693.070128
 10
-21.721894715
 20
-15693.1278936
 10
-17.4119115564
 20
-15693.1849137
 10
-13.101920533
 20
-15693.2411881
 10
-8.79192164476
 20
-15693.2967169
 10
-4.48191489178
 20
-15693.3515001
 10
-0.17190027403
 20
-15693.4055377
 10
4.13812220849
 20
-15693.4588296
 10
8.44815255577
 20
-15693.511376
 10
12.7581907678
 20
-15693.5631767
 10
17.0682368446
 20
-15693.6142318
 10
21.3782907861
 20
-15693.6645413
 10
25.6883525923
 20
-15693.7141051
 10
29.9984222633
 20
-15693.7629234
 10
34.308499799
 20
-15693.8109961
 10
38.6185851995
 20
-15693.8583231
 10
42.9286784646
 20
-15693.9049045
 10
47.2387795945
 20
-15693.9507403
 10
47.2387795945
 20
-15693.9507403
 10
51.5488885891
 20
-15693.9958305
 10
55.8590054485
 20
-15694.0401751
 10
60.1691301725
 20
-15694.0837741
 10
64.4792627613
 20
-15694.1266275
 10
68.7894032148
 20
-15694.1687352
 10
73.099551533
 20
-15694.2100974
 10
77.409707716
 20
-15694.2507139
 10
81.7198717637
 20
-15694.2905848
 10
86.0300436762
 20
-15694.3297101
 10
90.3402234534
 20
-15694.3680898
 10
94.6504110954
 20
-15694.4057238
 10
98.9606066021
 20
-15694.4426123
 10
103.270809974
 20
-15694.4787551
 10
107.58102121
 20
-15694.5141523
 10
111.891240311
 20
-15694.5488039
 10
116.201467277
 20
-15694.5827099
 10
120.511702108
 20
-15694.6158703
 10
124.821944803
 20
-15694.648285
 10
129.132195364
 20
-15694.6799541
 10
133.442453789
 20
-15694.7108776
 10
137.752720079
 20
-15694.7410554
 10
142.062994234
 20
-15694.7704877
 10
146.373276254
 20
-15694.7991743
 10
150.683566138
 20
-15694.8271152
 10
154.993863888
 20
-15694.8543106
 10
159.304169503
 20
-15694.8807603
 10
163.614482982
 20
-15694.9064644
 10
167.924804327
 20
-15694.9314228
 10
172.235133536
 20
-15694.9556356
  0
LINE
  5
9b
330
1F
100
AcDbEntity
  8
Mirrors
100
AcDbLine
 10
171.226432245
 20
-15790.5852197
 30
0.0
  11
-78.8517423525
 21
-15796.6780719
 31
0.0
  0
LINE
  5
9c
330
1F
100
AcDbEntity
  8
Mirrors
100
AcDbLine
 10
-15762.0579045
 20
-112.773928553
 30
0.0
  11
-15857.6868114
 21
-113.844909033
 31
0.0
  0
LINE
  5
9d
330
1F
100
AcDbEntity
  8
Mirrors
100
AcDbLine
 10
-15869.2161153
 20
136.041648048
 30
0.0
  11
-15764.8575635
 21
137.210394774
 31
0.0
  0
LINE
  5
9e
330
1F
100
AcDbEntity
  8
Mirrors
100
AcDbLine
 10
-15774.8569364
 20
137.098408414
 30
0.0
  11
-15772.0572774
 21
-112.885914913
 31
0.0
  0
LWPOLYLINE
  5
9f
330
1F
100
AcDbEntity
  8
Mirrors
100
AcDbPolyline
 90
60
 70
0
43
0.0
 10
-15764.8575635
 20
137.210394774
 10
-15764.8305436
 20
132.900082248
 10
-15764.802778
 20
128.589778072
 10
-15764.7742668
 20
124.279482246
 10
-15764.74501
 20
119.969194771
 10
-15764.7150076
 20
115.658915647
 10
-15764.6842595
 20
111.348644873
 10
-15764.6527658
 20
107.038382449
 10
-15764.6205265
 20
102.728128376
 10
-15764.5875416
 20
98.4178826537
 10
-15764.553811
 20
94.1076452817
 10
-15764.5193348
 20
89.7974162601
 10
-15764.484113
 20
85.4871955889
 10
-15764.4481456
 20
81.1769832682
 10
-15764.4114326
 20
76.8667792978
 10
-15764.3739739
 20
72.5565836779
 10
-15764.3357697
 20
68.2463964083
 10
-15764.2968198
 20
63.9362174891
 10
-15764.2571243
 20
59.6260469203
 10
-15764.2166832
 20
55.3158847018
 10
-15764.1754965
 20
51.0057308337
 10
-15764.1335642
 20
46.6955853158
 10
-15764.0908863
 20
42.3854481484
 10
-15764.0474627
 20
38.0753193312
 10
-15764.0032936
 20
33.7651988644
 10
-15763.9583788
 20
29.4550867479
 10
-15763.9127185
 20
25.1449829817
 10
-15763.8663125
 20
20.8348875658
 10
-15763.8191609
 20
16.5248005002
 10
-15763.7712638
 20
12.2147217849
 10
-15763.7712638
 20
12.2147217849
 10
-15763.722621
 20
7.90465141993
 10
-15763.6732326
 20
3.59458940526
 10
-15763.6230986
 20
-0.715464259101
 10
-15763.572219
 20
-5.02550957315
 10
-15763.5205938
 20
-9.33554653689
 10
-15763.4682229
 20
-13.6455751503
 10
-15763.4151065
 20
-17.9555954134
 10
-15763.3612445
 20
-22.2656073262
 10
-15763.3066368
 20
-26.5756108886
 10
-15763.2512836
 20
-30.8856061007
 10
-15763.1951847
 20
-35.1955929625
 10
-15763.1383402
 20
-39.5055714739
 10
-15763.0807501
 20
-43.815541635
 10
-15763.0224144
 20
-48.1255034457
 10
-15762.9633331
 20
-52.435456906
 10
-15762.9035061
 20
-56.7454020159
 10
-15762.8429336
 20
-61.0553387754
 10
-15762.7816154
 20
-65.3652671845
 10
-15762.7195516
 20
-69.6751872432
 10
-15762.6567422
 20
-73.9850989514
 10
-15762.5931872
 20
-78.2950023092
 10
-15762.5288866
 20
-82.6048973165
 10
-15762.4638403
 20
-86.9147839733
 10
-15762.3980484
 20
-91.2246622796
 10
-15762.3315109
 20
-95.5345322354
 10
-15762.2642277
 20
-99.8443938406
 10
-15762.196199
 20
-104.154247095
 10
-15762.1274245
 20
-108.464091999
 10
-15762.0579045
 20
-112.773928553
  0
LINE
  5
a0
330
1F
100
AcDbEntity
  8
Mirrors
100
AcDbLine
 10
-15857.6868114
 20
-113.844909033
 30
0.0
  11
-15869.2161153
 21
136.041648048
 31
0.0
  0
LINE
  5
a1
330
1F
100
AcDbEntity
  8
Mirrors
100
AcDbLine
 10
134.380236173
 20
134.320334
 30
0.0
  11
191.123712967
 21
77.5515515999
 31
0.0
  0
LINE
  5
a2
330
1F
100
AcDbEntity
  8
Mirrors
100
AcDbLine
 10
-78.0118527562
 20
-190.713855746
 30
0.0
  11
-134.380236173
 21
-134.320334
 31
0.0
  0
LINE
  5
a3
330
1F
100
AcDbEntity
  8
Mirrors
100
AcDbLine
 10
-128.724643163
 20
-139.978449208
 30
0.0
  11
140.035829184
 21
128.662218793
 31
0.0
  0
LINE
  5
a4
330
1F
100
AcDbEntity
  8
Mirrors
100
AcDbLine
 10
-134.380236173
 20
-134.320334
 30
0.0
  11
134.380236173
 21
134.320334
 31
0.0
  0
LINE
  5
a5
330
1F
100
AcDbEntity
  8
Mirrors
100
AcDbLine
 10
191.123712967
 20
77.5515515999
 30
0.0
  11
-78.0118527562
 21
-190.713855746
 31
0.0
  0
LINE
  5
a6
330
1F
100
AcDbEntity
  8
Mirrors
100
AcDbLine
 10
26507.1160223
 20
-126.380728491
 30
0.0
  11
26357.0680258
 21
-126.380728491
 31
0.0
  0
LINE
  5
a7
330
1F
100
AcDbEntity
  8
Mirrors
100
AcDbLine
 10
26357.1640189
 20
93.6192715095
 30
0.0
  11
26507.1160223
 21
93.6192715095
 31
0.0
  0
LINE
  5
a8
330
1F
100
AcDbEntity
  8
Mirrors
100
AcDbLine
 10
26492.1160223
 20
93.6192715095
 30
0.0
  11
26492.1160223
 21
-126.380728491
 31
0.0
  0
LWPOLYLINE
  5
a9
330
1F
100
AcDbEntity
  8
Mirrors
100
AcDbPolyline
 90
60
 70
0
43
0.0
 10
26507.1160223
 20
93.6192715095
 10
26507.1158065
 20
89.8261680612
 10
26507.1155983
 20
86.0330646129
 10
26507.1153976
 20
82.2399611646
 10
26507.1152045
 20
78.4468577163
 10
26507.115019
 20
74.6537542681
 10
26507.114841
 20
70.8606508198
 10
26507.1146706
 20
67.0675473715
 10
26507.1145078
 20
63.2744439232
 10
26507.1143526
 20
59.481340475
 10
26507.1142049
 20
55.6882370267
 10
26507.1140648
 20
51.8951335784
 10
26507.1139323
 20
48.1020301301
 10
26507.1138074
 20
44.3089266819
 10
26507.11369
 20
40.5158232336
 10
26507.1135802
 20
36.7227197853
 10
26507.113478
 20
32.929616337
 10
26507.1133833
 20
29.1365128888
 10
26507.1132962
 20
25.3434094405
 10
26507.1132167
 20
21.5503059922
 10
26507.1131448
 20
17.7572025439
 10
26507.1130804
 20
13.9640990957
 10
26507.1130236
 20
10.1709956474
 10
26507.1129744
 20
6.37789219911
 10
26507.1129328
 20
2.58478875083
 10
26507.1128987
 20
-1.20831469744
 10
26507.1128722
 20
-5.00141814572
 10
26507.1128532
 20
-8.794521594
 10
26507.1128419
 20
-12.5876250423
 10
26507.1128381
 20
-16.3807284905
 10
26507.1128381
 20
-16.3807284905
 10
26507.1128419
 20
-20.1738319388
 10
26507.1128532
 20
-23.9669353871
 10
26507.1128722
 20
-27.7600388354
 10
26507.1128987
 20
-31.5531422837
 10
26507.1129328
 20
-35.3462457319
 10
26507.1129744
 20
-39.1393491802
 10
26507.1130236
 20
-42.9324526285
 10
26507.1130804
 20
-46.7255560768
 10
26507.1131448
 20
-50.518659525
 10
26507.1132167
 20
-54.3117629733
 10
26507.1132962
 20
-58.1048664216
 10
26507.1133833
 20
-61.8979698699
 10
26507.113478
 20
-65.6910733181
 10
26507.1135802
 20
-69.4841767664
 10
26507.11369
 20
-73.2772802147
 10
26507.1138074
 20
-77.070383663
 10
26507.1139323
 20
-80.8634871112
 10
26507.1140648
 20
-84.6565905595
 10
26507.1142049
 20
-88.4496940078
 10
26507.1143526
 20
-92.2427974561
 10
26507.1145078
 20
-96.0359009043
 10
26507.1146706
 20
-99.8290043526
 10
26507.114841
 20
-103.622107801
 10
26507.115019
 20
-107.415211249
 10
26507.1152045
 20
-111.208314697
 10
26507.1153976
 20
-115.001418146
 10
26507.1155983
 20
-118.794521594
 10
26507.1158065
 20
-122.587625042
 10
26507.1160223
 20
-126.380728491
  0
LINE
  5
aa
330
1F
100
AcDbEntity
  8
Mirrors
100
AcDbLine
 10
26357.0680258
 20
-126.380728491
 30
0.0
  11
26357.1640189
 21
93.6192715095
 31
0.0
  0
LINE
  5
ab
330
1F
100
AcDbEntity
  8
Mirrors
100
AcDbLine
 10
102.409442927
 20
23221.9789127
 30
0.0
  11
102.409442927
 21
23071.9309161
 31
0.0
  0
LINE
  5
ac
330
1F
100
AcDbEntity
  8
Mirrors
100
AcDbLine
 10
-117.590557073
 20
23072.0269093
 30
0.0
  11
-117.590557073
 21
23221.9789127
 31
0.0
  0
LINE
  5
ad
330
1F
100
AcDbEntity
  8
Mirrors
100
AcDbLine
 10
-117.590557073
 20
23206.9789127
 30
0.0
  11
102.409442927
 21
23206.9789127
 31
0.0
  0
LWPOLYLINE
  5
ae
330
1F
100
AcDbEntity
  8
Mirrors
100
AcDbPolyline
 90
60
 70
0
43
0.0
 10
-117.590557073
 20
23221.9789127
 10
-113.797453625
 20
23221.9786969
 10
-110.004350177
 20
23221.9784886
 10
-106.211246728
 20
23221.978288
 10
-102.41814328
 20
23221.9780949
 10
-98.6250398319
 20
23221.9779093
 10
-94.8319363836
 20
23221.9777314
 10
-91.0388329354
 20
23221.977561
 10
-87.2457294871
 20
23221.9773982
 10
-83.4526260388
 20
23221.977243
 10
-79.6595225905
 20
23221.9770953
 10
-75.8664191423
 20
23221.9769552
 10
-72.073315694
 20
23221.9768227
 10
-68.2802122457
 20
23221.9766978
 10
-64.4871087974
 20
23221.9765804
 10
-60.6940053491
 20
23221.9764706
 10
-56.9009019009
 20
23221.9763684
 10
-53.1077984526
 20
23221.9762737
 10
-49.3146950043
 20
23221.9761866
 10
-45.521591556
 20
23221.9761071
 10
-41.7284881078
 20
23221.9760352
 10
-37.9353846595
 20
23221.9759708
 10
-34.1422812112
 20
23221.975914
 10
-30.3491777629
 20
23221.9758648
 10
-26.5560743147
 20
23221.9758231
 10
-22.7629708664
 20
23221.9757891
 10
-18.9698674181
 20
23221.9757626
 10
-15.1767639698
 20
23221.9757436
 10
-11.3836605216
 20
23221.9757323
 10
-7.59055707329
 20
23221.9757285
 10
-7.59055707329
 20
23221.9757285
 10
-3.79745362501
 20
23221.9757323
 10
-0.00435017673398
 20
23221.9757436
 10
3.78875327154
 20
23221.9757626
 10
7.58185671982
 20
23221.9757891
 10
11.3749601681
 20
23221.9758231
 10
15.1680636164
 20
23221.9758648
 10
18.9611670646
 20
23221.975914
 10
22.7542705129
 20
23221.9759708
 10
26.5473739612
 20
23221.9760352
 10
30.3404774095
 20
23221.9761071
 10
34.1335808577
 20
23221.9761866
 10
37.926684306
 20
23221.9762737
 10
41.7197877543
 20
23221.9763684
 10
45.5128912026
 20
23221.9764706
 10
49.3059946509
 20
23221.9765804
 10
53.0990980991
 20
23221.9766978
 10
56.8922015474
 20
23221.9768227
 10
60.6853049957
 20
23221.9769552
 10
64.478408444
 20
23221.9770953
 10
68.2715118922
 20
23221.977243
 10
72.0646153405
 20
23221.9773982
 10
75.8577187888
 20
23221.977561
 10
79.6508222371
 20
23221.9777314
 10
83.4439256853
 20
23221.9779093
 10
87.2370291336
 20
23221.9780949
 10
91.0301325819
 20
23221.978288
 10
94.8232360302
 20
23221.9784886
 10
98.6163394784
 20
23221.9786969
 10
102.409442927
 20
23221.9789127
  0
LINE
  5
af
330
1F
100
AcDbEntity
  8
Mirrors
100
AcDbLine
 10
102.409442927
 20
23071.9309161
 30
0.0
  11
-117.590557073
 21
23072.0269093
 31
0.0
  0
TEXT
  5
b1
330
1F
100
AcDbEntity
  8
text
100
AcDbText
 10
-4710.68136682
 20
269.59285271
 30
0.0
  40
1.0
  1
Beam P=5.00E+02 
 50
0.0
 7
Standard
100
AcDbText
  0
TEXT
  5
b2
330
1F
100
AcDbEntity
  8
text
100
AcDbText
 10
-4608.11804483
 20
270.175936356
 30
0.0
  40
1.0
  1
PR2:s1 P=2.50E-01 
 50
0.0
 7
Standard
100
AcDbText
  0
TEXT
  5
b3
330
1F
100
AcDbEntity
  8
text
100
AcDbText
 10
-15753.750778
 20
11.4466955244
 30
0.0
  40
1.0
  1
PR2:r1 P=5.00E+02 
 50
0.0
 7
Standard
100
AcDbText
  0
TEXT
  5
b4
330
1F
100
AcDbEntity
  8
text
100
AcDbText
 10
-15853.3959382
 20
9.47036030134
 30
0.0
  40
1.0
  1
PR3:s1 P=5.00E-02 
 50
0.0
 7
Standard
100
AcDbText
  0
TEXT
  5
b5
330
1F
100
AcDbEntity
  8
text
100
AcDbText
 10
142.645605529
 20
42.2225831655
 30
0.0
  40
1.0
  1
BS:s3 P=6.25E-03 
 50
0.0
 7
Standard
100
AcDbText
  0
TEXT
  5
b6
330
1F
100
AcDbEntity
  8
text
100
AcDbText
 10
65.1752185782
 20
53.513124945
 30
0.0
  40
1.0
  1
BS:s2 P=2.50E-02 
 50
0.0
 7
Standard
100
AcDbText
  0
TEXT
  5
b7
330
1F
100
AcDbEntity
  8
text
100
AcDbText
 10
78.8688254008
 20
-21.3321161173
 30
0.0
  40
1.0
  1
BS:s1 P=2.50E+02 
 50
0.0
 7
Standard
100
AcDbText
  0
TEXT
  5
b8
330
1F
100
AcDbEntity
  8
text
100
AcDbText
 10
-9.99922213781
 20
1.00774830127
 30
0.0
  40
1.0
  1
PR3:r1 P=5.00E+02 
 50
0.0
 7
Standard
100
AcDbText
  0
TEXT
  5
b9
330
1F
100
AcDbEntity
  8
text
100
AcDbText
 10
-8.46838639637
 20
23211.976605
 30
0.0
  40
1.0
  1
ITMY:s3 P=1.24E-01 
 50
0.0
 7
Standard
100
AcDbText
  0
TEXT
  5
ba
330
1F
100
AcDbEntity
  8
text
100
AcDbText
 10
-6.59055708037
 20
23081.9789127
 30
0.0
  40
1.0
  1
ITMY:s2 P=2.49E+02 
 50
0.0
 7
Standard
100
AcDbText
  0
TEXT
  5
bb
330
1F
100
AcDbEntity
  8
text
100
AcDbText
 10
-8.59055708037
 20
23211.9757285
 30
0.0
  40
1.0
  1
ITMY:s1 P=2.50E+02 
 50
0.0
 7
Standard
100
AcDbText
  0
TEXT
  5
bc
330
1F
100
AcDbEntity
  8
text
100
AcDbText
 10
-8.58726708017
 20
23061.9785842
 30
0.0
  40
1.0
  1
BS:r1 P=2.50E+02 
 50
0.0
 7
Standard
100
AcDbText
  0
TEXT
  5
bd
330
1F
100
AcDbEntity
  8
text
100
AcDbText
 10
-6.33747082029
 20
23081.9796675
 30
0.0
  40
1.0
  1
ITMY:s4 P=1.24E-01 
 50
0.0
 7
Standard
100
AcDbText
  0
TEXT
  5
be
330
1F
100
AcDbEntity
  8
text
100
AcDbText
 10
-34.3456801959
 20
-25.343143675
 30
0.0
  40
1.0
  1
ITMY:r1 P=1.25E-01 
 50
0.0
 7
Standard
100
AcDbText
  0
TEXT
  5
bf
330
1F
100
AcDbEntity
  8
text
100
AcDbText
 10
-12.2520724939
 20
-113.522748701
 30
0.0
  40
1.0
  1
BS:s1 P=6.25E-02 
 50
0.0
 7
Standard
100
AcDbText
  0
TEXT
  5
c0
330
1F
100
AcDbEntity
  8
text
100
AcDbText
 10
-15753.0338597
 20
-48.2212568722
 30
0.0
  40
1.0
  1
BS:r1 P=6.25E-02 
 50
0.0
 7
Standard
100
AcDbText
  0
TEXT
  5
c1
330
1F
100
AcDbEntity
  8
text
100
AcDbText
 10
-4710.30453407
 20
245.783349636
 30
0.0
  40
1.0
  1
PR3:r1 P=6.25E-02 
 50
0.0
 7
Standard
100
AcDbText
  0
TEXT
  5
c2
330
1F
100
AcDbEntity
  8
text
100
AcDbText
 10
-15754.4235482
 20
79.0508418271
 30
0.0
  40
1.0
  1
PR2:r1 P=6.24E-02 
 50
0.0
 7
Standard
100
AcDbText
  0
TEXT
  5
c3
330
1F
100
AcDbEntity
  8
text
100
AcDbText
 10
102.326211689
 20
113.257763484
 30
0.0
  40
1.0
  1
PR3:r1 P=6.24E-02 
 50
0.0
 7
Standard
100
AcDbText
  0
TEXT
  5
c4
330
1F
100
AcDbEntity
  8
text
100
AcDbText
 10
164.359388214
 20
98.6465330591
 30
0.0
  40
1.0
  1
BS:s1 P=3.12E-02 
 50
0.0
 7
Standard
100
AcDbText
  0
TEXT
  5
c5
330
1F
100
AcDbEntity
  8
text
100
AcDbText
 10
113.788491054
 20
1102.27758611
 30
0.0
  40
1.0
  1
BS:r1 P=3.12E-02 
 50
0.0
 7
Standard
100
AcDbText
  0
TEXT
  5
c6
330
1F
100
AcDbEntity
  8
text
100
AcDbText
 10
-11.0458403659
 20
-15683.25495
 30
0.0
  40
1.0
  1
BS:t1 P=6.25E-02 
 50
0.0
 7
Standard
100
AcDbText
  0
TEXT
  5
c7
330
1F
100
AcDbEntity
  8
text
100
AcDbText
 10
272.853475718
 20
-4594.85482801
 30
0.0
  40
1.0
  1
SR3:r1 P=6.25E-02 
 50
0.0
 7
Standard
100
AcDbText
  0
TEXT
  5
c8
330
1F
100
AcDbEntity
  8
text
100
AcDbText
 10
112.93510207
 20
-15684.563668
 30
0.0
  40
1.0
  1
SR2:r1 P=6.24E-02 
 50
0.0
 7
Standard
100
AcDbText
  0
TEXT
  5
c9
330
1F
100
AcDbEntity
  8
text
100
AcDbText
 10
173.18970547
 20
89.8128374662
 30
0.0
  40
1.0
  1
BS:s2 P=3.12E-02 
 50
0.0
 7
Standard
100
AcDbText
  0
TEXT
  5
ca
330
1F
100
AcDbEntity
  8
text
100
AcDbText
 10
131.264301184
 20
8.89674972967
 30
0.0
  40
1.0
  1
SR3:r1 P=6.24E-02 
 50
0.0
 7
Standard
100
AcDbText
  0
TEXT
  5
cb
330
1F
100
AcDbEntity
  8
text
100
AcDbText
 10
109.127579233
 20
97.4355882146
 30
0.0
  40
1.0
  1
BS:s1 P=6.24E-02 
 50
0.0
 7
Standard
100
AcDbText
  0
TEXT
  5
cc
330
1F
100
AcDbEntity
  8
text
100
AcDbText
 10
108.764314817
 20
1097.33193848
 30
0.0
  40
1.0
  1
BS:t1 P=3.12E-02 
 50
0.0
 7
Standard
100
AcDbText
  0
TEXT
  5
cd
330
1F
100
AcDbEntity
  8
text
100
AcDbText
 10
-39.6047909663
 20
-140.757527766
 30
0.0
  40
1.0
  1
BS:s3 P=3.11E-03 
 50
0.0
 7
Standard
100
AcDbText
  0
TEXT
  5
ce
330
1F
100
AcDbEntity
  8
text
100
AcDbText
 10
-53.5901554321
 20
-66.6163539489
 30
0.0
  40
1.0
  1
BS:s2 P=1.24E-02 
 50
0.0
 7
Standard
100
AcDbText
  0
TEXT
  5
cf
330
1F
100
AcDbEntity
  8
text
100
AcDbText
 10
23.1823591034
 20
-78.1959517889
 30
0.0
  40
1.0
  1
BS:s1 P=1.24E+02 
 50
0.0
 7
Standard
100
AcDbText
  0
TEXT
  5
d0
330
1F
100
AcDbEntity
  8
text
100
AcDbText
 10
0.996709999486
 20
10.0003284531
 30
0.0
  40
1.0
  1
ITMY:r2 P=2.49E+02 
 50
0.0
 7
Standard
100
AcDbText
  0
TEXT
  5
d1
330
1F
100
AcDbEntity
  8
text
100
AcDbText
 10
-15753.7720416
 20
11.2069734831
 30
0.0
  40
1.0
  1
BS:r1 P=1.24E+02 
 50
0.0
 7
Standard
100
AcDbText
  0
TEXT
  5
d2
330
1F
100
AcDbEntity
  8
text
100
AcDbText
 10
-15853.4865502
 20
10.9510121919
 30
0.0
  40
1.0
  1
PR3:s1 P=1.24E-02 
 50
0.0
 7
Standard
100
AcDbText
  0
TEXT
  5
d3
330
1F
100
AcDbEntity
  8
text
100
AcDbText
 10
-4710.69905415
 20
269.389270621
 30
0.0
  40
1.0
  1
PR3:r1 P=1.24E+02 
 50
0.0
 7
Standard
100
AcDbText
  0
TEXT
  5
d4
330
1F
100
AcDbEntity
  8
text
100
AcDbText
 10
-4608.19917353
 20
271.473026314
 30
0.0
  40
1.0
  1
PR2:s1 P=6.21E-02 
 50
0.0
 7
Standard
100
AcDbText
  0
TEXT
  5
d5
330
1F
100
AcDbEntity
  8
text
100
AcDbText
 10
-19452.1046524
 20
225.745280729
 30
0.0
  40
1.0
  1
PR2:r1 P=1.24E+02 
 50
0.0
 7
Standard
100
AcDbText
  0
TEXT
  5
d6
330
1F
100
AcDbEntity
  8
text
100
AcDbText
 10
-3608.21625333
 20
279.068887184
 30
0.0
  40
1.0
  1
PR2:t1 P=6.21E-02 
 50
0.0
 7
Standard
100
AcDbText
  0
TEXT
  5
d7
330
1F
100
AcDbEntity
  8
text
100
AcDbText
 10
-16853.3712984
 20
27.248681028
 30
0.0
  40
1.0
  1
PR3:t1 P=1.24E-02 
 50
0.0
 7
Standard
100
AcDbText
  0
TEXT
  5
d8
330
1F
100
AcDbEntity
  8
text
100
AcDbText
 10
-15753.9444851
 20
26.5177294765
 30
0.0
  40
1.0
  1
BS:r2 P=6.22E-03 
 50
0.0
 7
Standard
100
AcDbText
  0
TEXT
  5
d9
330
1F
100
AcDbEntity
  8
text
100
AcDbText
 10
-4710.91556761
 20
326.272196066
 30
0.0
  40
1.0
  1
PR3:r1 P=6.21E-03 
 50
0.0
 7
Standard
100
AcDbText
  0
TEXT
  5
da
330
1F
100
AcDbEntity
  8
text
100
AcDbText
 10
-5690.21845687
 20
362.075259406
 30
0.0
  40
1.0
  1
PR2:r1 P=6.21E-03 
 50
0.0
 7
Standard
100
AcDbText
  0
TEXT
  5
db
330
1F
100
AcDbEntity
  8
text
100
AcDbText
 10
62.7178601847
 20
-15684.0936947
 30
0.0
  40
1.0
  1
BS:t2 P=3.11E-03 
 50
0.0
 7
Standard
100
AcDbText
  0
TEXT
  5
dc
330
1F
100
AcDbEntity
  8
text
100
AcDbText
 10
353.1375022
 20
-4595.39546216
 30
0.0
  40
1.0
  1
SR3:r1 P=3.11E-03 
 50
0.0
 7
Standard
100
AcDbText
  0
TEXT
  5
dd
330
1F
100
AcDbEntity
  8
text
100
AcDbText
 10
394.721863942
 20
-5574.60430844
 30
0.0
  40
1.0
  1
SR2:r1 P=3.11E-03 
 50
0.0
 7
Standard
100
AcDbText
  0
TEXT
  5
de
330
1F
100
AcDbEntity
  8
text
100
AcDbText
 10
48.2244929406
 20
-15683.949322
 30
0.0
  40
1.0
  1
BS:t1 P=1.24E+02 
 50
0.0
 7
Standard
100
AcDbText
  0
TEXT
  5
df
330
1F
100
AcDbEntity
  8
text
100
AcDbText
 10
48.0337756437
 20
-15783.6138931
 30
0.0
  40
1.0
  1
SR3:s1 P=1.24E-02 
 50
0.0
 7
Standard
100
AcDbText
  0
TEXT
  5
e0
330
1F
100
AcDbEntity
  8
text
100
AcDbText
 10
296.265863731
 20
-4595.23922876
 30
0.0
  40
1.0
  1
SR3:r1 P=1.24E+02 
 50
0.0
 7
Standard
100
AcDbText
  0
TEXT
  5
e1
330
1F
100
AcDbEntity
  8
text
100
AcDbText
 10
298.285358137
 20
-4492.61813891
 30
0.0
  40
1.0
  1
SR2:s1 P=6.21E-02 
 50
0.0
 7
Standard
100
AcDbText
  0
TEXT
  5
e2
330
1F
100
AcDbEntity
  8
text
100
AcDbText
 10
266.302209188
 20
-19316.4549726
 30
0.0
  40
1.0
  1
SR2:r1 P=1.24E+02 
 50
0.0
 7
Standard
100
AcDbText
  0
TEXT
  5
e3
330
1F
100
AcDbEntity
  8
text
100
AcDbText
 10
336.327740783
 20
-3493.32489319
 30
0.0
  40
1.0
  1
SR2:t1 P=6.21E-02 
 50
0.0
 7
Standard
100
AcDbText
  0
TEXT
  5
e4
330
1F
100
AcDbEntity
  8
text
100
AcDbText
 10
33.880954476
 20
-16783.5250132
 30
0.0
  40
1.0
  1
SR3:t1 P=1.24E-02 
 50
0.0
 7
Standard
100
AcDbText
  0
TEXT
  5
e5
330
1F
100
AcDbEntity
  8
text
100
AcDbText
 10
36.4980526415
 20
45.5026637433
 30
0.0
  40
1.0
  1
ITMY:r3 P=1.24E-01 
 50
0.0
 7
Standard
100
AcDbText
  0
TEXT
  5
e6
330
1F
100
AcDbEntity
  8
text
100
AcDbText
 10
58.7759642202
 20
-42.7104961341
 30
0.0
  40
1.0
  1
BS:s1 P=6.19E-02 
 50
0.0
 7
Standard
100
AcDbText
  0
TEXT
  5
e7
330
1F
100
AcDbEntity
  8
text
100
AcDbText
 10
-15754.3708126
 20
70.9085260459
 30
0.0
  40
1.0
  1
BS:r1 P=6.19E-02 
 50
0.0
 7
Standard
100
AcDbText
  0
TEXT
  5
e8
330
1F
100
AcDbEntity
  8
text
100
AcDbText
 10
-4710.91297418
 20
293.033998184
 30
0.0
  40
1.0
  1
PR3:r1 P=6.19E-02 
 50
0.0
 7
Standard
100
AcDbText
  0
TEXT
  5
e9
330
1F
100
AcDbEntity
  8
text
100
AcDbText
 10
-5690.86194753
 20
300.390301263
 30
0.0
  40
1.0
  1
PR2:r1 P=6.19E-02 
 50
0.0
 7
Standard
100
AcDbText
  0
TEXT
  5
ea
330
1F
100
AcDbEntity
  8
text
100
AcDbText
 10
107.768258679
 20
-15684.5048628
 30
0.0
  40
1.0
  1
BS:t1 P=6.19E-02 
 50
0.0
 7
Standard
100
AcDbText
  0
TEXT
  5
eb
330
1F
100
AcDbEntity
  8
text
100
AcDbText
 10
319.71619965
 20
-4595.44068424
 30
0.0
  40
1.0
  1
SR3:r1 P=6.19E-02 
 50
0.0
 7
Standard
100
AcDbText
  0
TEXT
  5
ec
330
1F
100
AcDbEntity
  8
text
100
AcDbText
 10
332.047910188
 20
-5575.39964663
 30
0.0
  40
1.0
  1
SR2:r1 P=6.19E-02 
 50
0.0
 7
Standard
100
AcDbText
  0
TEXT
  5
ed
330
1F
100
AcDbEntity
  8
text
100
AcDbText
 10
-8.59055708818
 20
3023211.97573
 30
0.0
  40
1.0
  1
ITMY:t1 P=9.99E-01 
 50
0.0
 7
Standard
100
AcDbText
  0
TEXT
  5
ee
330
1F
100
AcDbEntity
  8
text
100
AcDbText
 10
67.0692269114
 20
1053.40599277
 30
0.0
  40
1.0
  1
BS:r2 P=1.25E-02 
 50
0.0
 7
Standard
100
AcDbText
  0
TEXT
  5
ef
330
1F
100
AcDbEntity
  8
text
100
AcDbText
 10
1141.98397155
 20
44.8465605935
 30
0.0
  40
1.0
  1
BS:t2 P=6.25E-03 
 50
0.0
 7
Standard
100
AcDbText
  0
TEXT
  5
f0
330
1F
100
AcDbEntity
  8
text
100
AcDbText
 10
26497.1137146
 20
-15.5028991675
 30
0.0
  40
1.0
  1
ITMX:s3 P=1.24E-01 
 50
0.0
 7
Standard
100
AcDbText
  0
TEXT
  5
f1
330
1F
100
AcDbEntity
  8
text
100
AcDbText
 10
26367.1160223
 20
-17.3807284835
 30
0.0
  40
1.0
  1
ITMX:s2 P=2.49E+02 
 50
0.0
 7
Standard
100
AcDbText
  0
TEXT
  5
f2
330
1F
100
AcDbEntity
  8
text
100
AcDbText
 10
26497.1128381
 20
-15.3807284835
 30
0.0
  40
1.0
  1
ITMX:s1 P=2.50E+02 
 50
0.0
 7
Standard
100
AcDbText
  0
TEXT
  5
f3
330
1F
100
AcDbEntity
  8
text
100
AcDbText
 10
26347.1156939
 20
-15.3840184837
 30
0.0
  40
1.0
  1
BS:t1 P=2.50E+02 
 50
0.0
 7
Standard
100
AcDbText
  0
TEXT
  5
f4
330
1F
100
AcDbEntity
  8
text
100
AcDbText
 10
26367.1167771
 20
-17.6338147435
 30
0.0
  40
1.0
  1
ITMX:s4 P=1.24E-01 
 50
0.0
 7
Standard
100
AcDbText
  0
TEXT
  5
f5
330
1F
100
AcDbEntity
  8
text
100
AcDbText
 10
63.5285850194
 20
-37.9732543142
 30
0.0
  40
1.0
  1
BS:s2 P=6.25E-02 
 50
0.0
 7
Standard
100
AcDbText
  0
TEXT
  5
f6
330
1F
100
AcDbEntity
  8
text
100
AcDbText
 10
138.505639403
 20
14.1251213969
 30
0.0
  40
1.0
  1
ITMX:r1 P=1.25E-01 
 50
0.0
 7
Standard
100
AcDbText
  0
TEXT
  5
f7
330
1F
100
AcDbEntity
  8
text
100
AcDbText
 10
49.6108534309
 20
36.5495708892
 30
0.0
  40
1.0
  1
BS:s1 P=1.25E-01 
 50
0.0
 7
Standard
100
AcDbText
  0
TEXT
  5
f8
330
1F
100
AcDbEntity
  8
text
100
AcDbText
 10
112.490168336
 20
-15684.5429361
 30
0.0
  40
1.0
  1
BS:r2 P=6.24E-02 
 50
0.0
 7
Standard
100
AcDbText
  0
TEXT
  5
f9
330
1F
100
AcDbEntity
  8
text
100
AcDbText
 10
320.198537099
 20
-4595.443261
 30
0.0
  40
1.0
  1
SR3:r1 P=6.24E-02 
 50
0.0
 7
Standard
100
AcDbText
  0
TEXT
  5
fa
330
1F
100
AcDbEntity
  8
text
100
AcDbText
 10
332.465550474
 20
-5575.40245195
 30
0.0
  40
1.0
  1
SR2:r1 P=6.24E-02 
 50
0.0
 7
Standard
100
AcDbText
  0
TEXT
  5
fb
330
1F
100
AcDbEntity
  8
text
100
AcDbText
 10
-15754.4118521
 20
75.6219032436
 30
0.0
  40
1.0
  1
BS:t1 P=6.25E-02 
 50
0.0
 7
Standard
100
AcDbText
  0
TEXT
  5
fc
330
1F
100
AcDbEntity
  8
text
100
AcDbText
 10
-4710.91526618
 20
293.532692114
 30
0.0
  40
1.0
  1
PR3:r1 P=6.24E-02 
 50
0.0
 7
Standard
100
AcDbText
  0
TEXT
  5
fd
330
1F
100
AcDbEntity
  8
text
100
AcDbText
 10
-5690.86502901
 20
300.826283106
 30
0.0
  40
1.0
  1
PR2:r1 P=6.24E-02 
 50
0.0
 7
Standard
100
AcDbText
  0
TEXT
  5
fe
330
1F
100
AcDbEntity
  8
text
100
AcDbText
 10
-53.5901554316
 20
-66.6163539484
 30
0.0
  40
1.0
  1
BS:s3 P=1.24E-02 
 50
0.0
 7
Standard
100
AcDbText
  0
TEXT
  5
ff
330
1F
100
AcDbEntity
  8
text
100
AcDbText
 10
23.1823591039
 20
-78.1959517884
 30
0.0
  40
1.0
  1
BS:s2 P=1.24E+02 
 50
0.0
 7
Standard
100
AcDbText
  0
TEXT
  5
100
330
1F
100
AcDbEntity
  8
text
100
AcDbText
 10
9.34756481361
 20
-3.69093918368
 30
0.0
  40
1.0
  1
BS:s1 P=2.49E+02 
 50
0.0
 7
Standard
100
AcDbText
  0
TEXT
  5
101
330
1F
100
AcDbEntity
  8
text
100
AcDbText
 10
98.2167186679
 20
-26.0197653007
 30
0.0
  40
1.0
  1
ITMX:r2 P=2.49E+02 
 50
0.0
 7
Standard
100
AcDbText
  0
TEXT
  5
102
330
1F
100
AcDbEntity
  8
text
100
AcDbText
 10
-39.6047909658
 20
-140.757527765
 30
0.0
  40
1.0
  1
BS:s4 P=6.21E-03 
 50
0.0
 7
Standard
100
AcDbText
  0
TEXT
  5
103
330
1F
100
AcDbEntity
  8
text
100
AcDbText
 10
33.3552684935
 20
-15683.7925365
 30
0.0
  40
1.0
  1
BS:r1 P=2.49E-02 
 50
0.0
 7
Standard
100
AcDbText
  0
TEXT
  5
104
330
1F
100
AcDbEntity
  8
text
100
AcDbText
 10
239.192361503
 20
-4593.99193947
 30
0.0
  40
1.0
  1
SR3:r1 P=2.49E-02 
 50
0.0
 7
Standard
100
AcDbText
  0
TEXT
  5
105
330
1F
100
AcDbEntity
  8
text
100
AcDbText
 10
197.604193108
 20
-5573.08838936
 30
0.0
  40
1.0
  1
SR2:r1 P=2.48E-02 
 50
0.0
 7
Standard
100
AcDbText
  0
TEXT
  5
106
330
1F
100
AcDbEntity
  8
text
100
AcDbText
 10
48.2244929414
 20
-15683.949322
 30
0.0
  40
1.0
  1
BS:r2 P=1.24E+02 
 50
0.0
 7
Standard
100
AcDbText
  0
TEXT
  5
107
330
1F
100
AcDbEntity
  8
text
100
AcDbText
 10
48.0337756445
 20
-15783.6138931
 30
0.0
  40
1.0
  1
SR3:s1 P=1.24E-02 
 50
0.0
 7
Standard
100
AcDbText
  0
TEXT
  5
108
330
1F
100
AcDbEntity
  8
text
100
AcDbText
 10
296.265863731
 20
-4595.23922876
 30
0.0
  40
1.0
  1
SR3:r1 P=1.24E+02 
 50
0.0
 7
Standard
100
AcDbText
  0
TEXT
  5
109
330
1F
100
AcDbEntity
  8
text
100
AcDbText
 10
298.285358137
 20
-4492.61813891
 30
0.0
  40
1.0
  1
SR2:s1 P=6.21E-02 
 50
0.0
 7
Standard
100
AcDbText
  0
TEXT
  5
10a
330
1F
100
AcDbEntity
  8
text
100
AcDbText
 10
266.302209191
 20
-19316.4549726
 30
0.0
  40
1.0
  1
SR2:r1 P=1.24E+02 
 50
0.0
 7
Standard
100
AcDbText
  0
TEXT
  5
10b
330
1F
100
AcDbEntity
  8
text
100
AcDbText
 10
336.327740783
 20
-3493.32489319
 30
0.0
  40
1.0
  1
SR2:t1 P=6.21E-02 
 50
0.0
 7
Standard
100
AcDbText
  0
TEXT
  5
10c
330
1F
100
AcDbEntity
  8
text
100
AcDbText
 10
33.8809544769
 20
-16783.5250132
 30
0.0
  40
1.0
  1
SR3:t1 P=1.24E-02 
 50
0.0
 7
Standard
100
AcDbText
  0
TEXT
  5
10d
330
1F
100
AcDbEntity
  8
text
100
AcDbText
 10
62.7178601855
 20
-15684.0936947
 30
0.0
  40
1.0
  1
BS:r3 P=6.21E-03 
 50
0.0
 7
Standard
100
AcDbText
  0
TEXT
  5
10e
330
1F
100
AcDbEntity
  8
text
100
AcDbText
 10
353.1375022
 20
-4595.39546216
 30
0.0
  40
1.0
  1
SR3:r1 P=6.21E-03 
 50
0.0
 7
Standard
100
AcDbText
  0
TEXT
  5
10f
330
1F
100
AcDbEntity
  8
text
100
AcDbText
 10
394.721863942
 20
-5574.60430844
 30
0.0
  40
1.0
  1
SR2:r1 P=6.21E-03 
 50
0.0
 7
Standard
100
AcDbText
  0
TEXT
  5
110
330
1F
100
AcDbEntity
  8
text
100
AcDbText
 10
-15753.9444851
 20
26.5177294774
 30
0.0
  40
1.0
  1
BS:t2 P=6.21E-03 
 50
0.0
 7
Standard
100
AcDbText
  0
TEXT
  5
111
330
1F
100
AcDbEntity
  8
text
100
AcDbText
 10
-4710.91556761
 20
326.272196066
 30
0.0
  40
1.0
  1
PR3:r1 P=6.21E-03 
 50
0.0
 7
Standard
100
AcDbText
  0
TEXT
  5
112
330
1F
100
AcDbEntity
  8
text
100
AcDbText
 10
-5690.21845687
 20
362.075259407
 30
0.0
  40
1.0
  1
PR2:r1 P=6.21E-03 
 50
0.0
 7
Standard
100
AcDbText
  0
TEXT
  5
113
330
1F
100
AcDbEntity
  8
text
100
AcDbText
 10
-15753.7720416
 20
11.206973484
 30
0.0
  40
1.0
  1
BS:t1 P=1.24E+02 
 50
0.0
 7
Standard
100
AcDbText
  0
TEXT
  5
114
330
1F
100
AcDbEntity
  8
text
100
AcDbText
 10
-15853.4865502
 20
10.9510121928
 30
0.0
  40
1.0
  1
PR3:s1 P=1.24E-02 
 50
0.0
 7
Standard
100
AcDbText
  0
TEXT
  5
115
330
1F
100
AcDbEntity
  8
text
100
AcDbText
 10
-4710.69905415
 20
269.389270622
 30
0.0
  40
1.0
  1
PR3:r1 P=1.24E+02 
 50
0.0
 7
Standard
100
AcDbText
  0
TEXT
  5
116
330
1F
100
AcDbEntity
  8
text
100
AcDbText
 10
-4608.19917353
 20
271.473026314
 30
0.0
  40
1.0
  1
PR2:s1 P=6.21E-02 
 50
0.0
 7
Standard
100
AcDbText
  0
TEXT
  5
117
330
1F
100
AcDbEntity
  8
text
100
AcDbText
 10
-19452.1046524
 20
225.745280732
 30
0.0
  40
1.0
  1
PR2:r1 P=1.24E+02 
 50
0.0
 7
Standard
100
AcDbText
  0
TEXT
  5
118
330
1F
100
AcDbEntity
  8
text
100
AcDbText
 10
-3608.21625333
 20
279.068887185
 30
0.0
  40
1.0
  1
PR2:t1 P=6.21E-02 
 50
0.0
 7
Standard
100
AcDbText
  0
TEXT
  5
119
330
1F
100
AcDbEntity
  8
text
100
AcDbText
 10
-16853.3712984
 20
27.2486810288
 30
0.0
  40
1.0
  1
PR3:t1 P=1.24E-02 
 50
0.0
 7
Standard
100
AcDbText
  0
TEXT
  5
11a
330
1F
100
AcDbEntity
  8
text
100
AcDbText
 10
-17.5566047741
 20
-118.810119717
 30
0.0
  40
1.0
  1
BS:s2 P=6.19E-02 
 50
0.0
 7
Standard
100
AcDbText
  0
TEXT
  5
11b
330
1F
100
AcDbEntity
  8
text
100
AcDbText
 10
57.534183409
 20
-66.5569660223
 30
0.0
  40
1.0
  1
ITMX:r3 P=1.24E-01 
 50
0.0
 7
Standard
100
AcDbText
  0
TEXT
  5
11c
330
1F
100
AcDbEntity
  8
text
100
AcDbText
 10
-31.3083467686
 20
-44.3238920413
 30
0.0
  40
1.0
  1
BS:s1 P=1.24E-01 
 50
0.0
 7
Standard
100
AcDbText
  0
TEXT
  5
11d
330
1F
100
AcDbEntity
  8
text
100
AcDbText
 10
-16.3125775277
 20
-15683.1863034
 30
0.0
  40
1.0
  1
BS:r2 P=6.19E-02 
 50
0.0
 7
Standard
100
AcDbText
  0
TEXT
  5
11e
330
1F
100
AcDbEntity
  8
text
100
AcDbText
 10
272.307256538
 20
-4594.84330348
 30
0.0
  40
1.0
  1
SR3:r1 P=6.19E-02 
 50
0.0
 7
Standard
100
AcDbText
  0
TEXT
  5
11f
330
1F
100
AcDbEntity
  8
text
100
AcDbText
 10
113.08387867
 20
-15684.564785
 30
0.0
  40
1.0
  1
SR2:r1 P=6.18E-02 
 50
0.0
 7
Standard
100
AcDbText
  0
TEXT
  5
120
330
1F
100
AcDbEntity
  8
text
100
AcDbText
 10
171.506788157
 20
91.4961393989
 30
0.0
  40
1.0
  1
BS:s2 P=3.09E-02 
 50
0.0
 7
Standard
100
AcDbText
  0
TEXT
  5
121
330
1F
100
AcDbEntity
  8
text
100
AcDbText
 10
132.203952208
 20
9.83391435513
 30
0.0
  40
1.0
  1
SR3:r1 P=6.18E-02 
 50
0.0
 7
Standard
100
AcDbText
  0
TEXT
  5
122
330
1F
100
AcDbEntity
  8
text
100
AcDbText
 10
110.068970518
 20
98.3767885665
 30
0.0
  40
1.0
  1
BS:s1 P=6.18E-02 
 50
0.0
 7
Standard
100
AcDbText
  0
TEXT
  5
123
330
1F
100
AcDbEntity
  8
text
100
AcDbText
 10
109.755809928
 20
1098.27311698
 30
0.0
  40
1.0
  1
BS:t1 P=3.09E-02 
 50
0.0
 7
Standard
100
AcDbText
  0
TEXT
  5
124
330
1F
100
AcDbEntity
  8
text
100
AcDbText
 10
-15752.9618847
 20
-53.4785042083
 30
0.0
  40
1.0
  1
BS:t1 P=6.19E-02 
 50
0.0
 7
Standard
100
AcDbText
  0
TEXT
  5
125
330
1F
100
AcDbEntity
  8
text
100
AcDbText
 10
-4710.29321379
 20
245.218902563
 30
0.0
  40
1.0
  1
PR3:r1 P=6.19E-02 
 50
0.0
 7
Standard
100
AcDbText
  0
TEXT
  5
126
330
1F
100
AcDbEntity
  8
text
100
AcDbText
 10
-15754.4244932
 20
79.1556399416
 30
0.0
  40
1.0
  1
PR2:r1 P=6.19E-02 
 50
0.0
 7
Standard
100
AcDbText
  0
TEXT
  5
127
330
1F
100
AcDbEntity
  8
text
100
AcDbText
 10
103.254759531
 20
114.185430911
 30
0.0
  40
1.0
  1
PR3:r1 P=6.18E-02 
 50
0.0
 7
Standard
100
AcDbText
  0
TEXT
  5
128
330
1F
100
AcDbEntity
  8
text
100
AcDbText
 10
162.700463003
 20
100.305822249
 30
0.0
  40
1.0
  1
BS:s1 P=3.09E-02 
 50
0.0
 7
Standard
100
AcDbText
  0
TEXT
  5
129
330
1F
100
AcDbEntity
  8
text
100
AcDbText
 10
114.768273007
 20
1103.20569383
 30
0.0
  40
1.0
  1
BS:r1 P=3.09E-02 
 50
0.0
 7
Standard
100
AcDbText
  0
TEXT
  5
12a
330
1F
100
AcDbEntity
  8
text
100
AcDbText
 10
3026497.11284
 20
-15.3807284835
 30
0.0
  40
1.0
  1
ITMX:t1 P=9.99E-01 
 50
0.0
 7
Standard
100
AcDbText
  0
TEXT
  5
12b
330
1F
100
AcDbEntity
  8
text
100
AcDbText
 10
-16853.3784029
 20
1.87943835216
 30
0.0
  40
1.0
  1
PR3:t1 P=5.00E-02 
 50
0.0
 7
Standard
100
AcDbText
  0
TEXT
  5
12c
330
1F
100
AcDbEntity
  8
text
100
AcDbText
 10
-2608.26434654
 20
244.610831078
 30
0.0
  40
1.0
  1
PR2:t1 P=2.50E-01 
 50
0.0
 7
Standard
100
AcDbText
  0
TEXT
  5
12d
330
1F
100
AcDbEntity
  8
text
100
AcDbText
 10
26367.1167771
 20
-17.6338147506
 30
0.0
  40
1.0
  1
ITMX:s3 P=2.48E-01 
 50
0.0
 7
Standard
100
AcDbText
  0
TEXT
  5
12e
330
1F
100
AcDbEntity
  8
text
100
AcDbText
 10
26497.1137146
 20
-15.5028991746
 30
0.0
  40
1.0
  1
ITMX:s2 P=2.50E-01 
 50
0.0
 7
Standard
100
AcDbText
  0
TEXT
  5
12f
330
1F
100
AcDbEntity
  8
text
100
AcDbText
 10
26367.1160223
 20
-17.3807284905
 30
0.0
  40
1.0
  1
ITMX:s1 P=5.00E+02 
 50
0.0
 7
Standard
100
AcDbText
  0
TEXT
  5
130
330
1F
100
AcDbEntity
  8
text
100
AcDbText
 10
26517.1128381
 20
-17.3807284905
 30
0.0
  40
1.0
  1
Beam P=1.25E+05 
 50
0.0
 7
Standard
100
AcDbText
  0
TEXT
  5
131
330
1F
100
AcDbEntity
  8
text
100
AcDbText
 10
3026497.11284
 20
-15.3807284905
 30
0.0
  40
1.0
  1
ITMX:r1 P=1.24E+05 
 50
0.0
 7
Standard
100
AcDbText
  0
TEXT
  5
132
330
1F
100
AcDbEntity
  8
text
100
AcDbText
 10
28497.1120375
 20
-18.5577305658
 30
0.0
  40
1.0
  1
ITMX:r2 P=1.00E-03 
 50
0.0
 7
Standard
100
AcDbText
  0
TEXT
  5
133
330
1F
100
AcDbEntity
  8
text
100
AcDbText
 10
-17.5566047819
 20
-118.810119725
 30
0.0
  40
1.0
  1
BS:s2 P=1.24E-01 
 50
0.0
 7
Standard
100
AcDbText
  0
TEXT
  5
134
330
1F
100
AcDbEntity
  8
text
100
AcDbText
 10
57.5341834012
 20
-66.5569660301
 30
0.0
  40
1.0
  1
ITMX:t2 P=2.48E-01 
 50
0.0
 7
Standard
100
AcDbText
  0
TEXT
  5
135
330
1F
100
AcDbEntity
  8
text
100
AcDbText
 10
-31.3083467764
 20
-44.3238920491
 30
0.0
  40
1.0
  1
BS:s1 P=2.48E-01 
 50
0.0
 7
Standard
100
AcDbText
  0
TEXT
  5
136
330
1F
100
AcDbEntity
  8
text
100
AcDbText
 10
-16.3125775358
 20
-15683.1863034
 30
0.0
  40
1.0
  1
BS:r2 P=1.24E-01 
 50
0.0
 7
Standard
100
AcDbText
  0
TEXT
  5
137
330
1F
100
AcDbEntity
  8
text
100
AcDbText
 10
272.307256537
 20
-4594.84330348
 30
0.0
  40
1.0
  1
SR3:r1 P=1.24E-01 
 50
0.0
 7
Standard
100
AcDbText
  0
TEXT
  5
138
330
1F
100
AcDbEntity
  8
text
100
AcDbText
 10
113.083878668
 20
-15684.564785
 30
0.0
  40
1.0
  1
SR2:r1 P=1.24E-01 
 50
0.0
 7
Standard
100
AcDbText
  0
TEXT
  5
139
330
1F
100
AcDbEntity
  8
text
100
AcDbText
 10
171.506788159
 20
91.4961393962
 30
0.0
  40
1.0
  1
BS:s2 P=6.19E-02 
 50
0.0
 7
Standard
100
AcDbText
  0
TEXT
  5
13a
330
1F
100
AcDbEntity
  8
text
100
AcDbText
 10
132.203952206
 20
9.83391435365
 30
0.0
  40
1.0
  1
SR3:r1 P=1.24E-01 
 50
0.0
 7
Standard
100
AcDbText
  0
TEXT
  5
13b
330
1F
100
AcDbEntity
  8
text
100
AcDbText
 10
110.068970517
 20
98.376788565
 30
0.0
  40
1.0
  1
BS:s1 P=1.24E-01 
 50
0.0
 7
Standard
100
AcDbText
  0
TEXT
  5
13c
330
1F
100
AcDbEntity
  8
text
100
AcDbText
 10
109.755809926
 20
1098.27311698
 30
0.0
  40
1.0
  1
BS:t1 P=6.19E-02 
 50
0.0
 7
Standard
100
AcDbText
  0
TEXT
  5
13d
330
1F
100
AcDbEntity
  8
text
100
AcDbText
 10
-15752.9618847
 20
-53.4785042165
 30
0.0
  40
1.0
  1
BS:t1 P=1.24E-01 
 50
0.0
 7
Standard
100
AcDbText
  0
TEXT
  5
13e
330
1F
100
AcDbEntity
  8
text
100
AcDbText
 10
-4710.29321379
 20
245.218902562
 30
0.0
  40
1.0
  1
PR3:r1 P=1.24E-01 
 50
0.0
 7
Standard
100
AcDbText
  0
TEXT
  5
13f
330
1F
100
AcDbEntity
  8
text
100
AcDbText
 10
-15754.4244932
 20
79.1556399387
 30
0.0
  40
1.0
  1
PR2:r1 P=1.24E-01 
 50
0.0
 7
Standard
100
AcDbText
  0
TEXT
  5
140
330
1F
100
AcDbEntity
  8
text
100
AcDbText
 10
103.25475953
 20
114.185430909
 30
0.0
  40
1.0
  1
PR3:r1 P=1.24E-01 
 50
0.0
 7
Standard
100
AcDbText
  0
TEXT
  5
141
330
1F
100
AcDbEntity
  8
text
100
AcDbText
 10
162.700463006
 20
100.305822246
 30
0.0
  40
1.0
  1
BS:s1 P=6.19E-02 
 50
0.0
 7
Standard
100
AcDbText
  0
TEXT
  5
142
330
1F
100
AcDbEntity
  8
text
100
AcDbText
 10
114.768273005
 20
1103.20569382
 30
0.0
  40
1.0
  1
BS:r1 P=6.19E-02 
 50
0.0
 7
Standard
100
AcDbText
  0
TEXT
  5
143
330
1F
100
AcDbEntity
  8
text
100
AcDbText
 10
-53.5901554389
 20
-66.6163539557
 30
0.0
  40
1.0
  1
BS:s3 P=2.50E-02 
 50
0.0
 7
Standard
100
AcDbText
  0
TEXT
  5
144
330
1F
100
AcDbEntity
  8
text
100
AcDbText
 10
23.1823590966
 20
-78.1959517957
 30
0.0
  40
1.0
  1
BS:s2 P=2.50E+02 
 50
0.0
 7
Standard
100
AcDbText
  0
TEXT
  5
145
330
1F
100
AcDbEntity
  8
text
100
AcDbText
 10
9.34756480628
 20
-3.69093919101
 30
0.0
  40
1.0
  1
BS:s1 P=5.00E+02 
 50
0.0
 7
Standard
100
AcDbText
  0
TEXT
  5
146
330
1F
100
AcDbEntity
  8
text
100
AcDbText
 10
98.2167186605
 20
-26.0197653081
 30
0.0
  40
1.0
  1
ITMX:t1 P=5.00E+02 
 50
0.0
 7
Standard
100
AcDbText
  0
TEXT
  5
147
330
1F
100
AcDbEntity
  8
text
100
AcDbText
 10
-39.6047909731
 20
-140.757527773
 30
0.0
  40
1.0
  1
BS:s4 P=1.25E-02 
 50
0.0
 7
Standard
100
AcDbText
  0
TEXT
  5
148
330
1F
100
AcDbEntity
  8
text
100
AcDbText
 10
33.355268486
 20
-15683.7925365
 30
0.0
  40
1.0
  1
BS:r1 P=5.00E-02 
 50
0.0
 7
Standard
100
AcDbText
  0
TEXT
  5
149
330
1F
100
AcDbEntity
  8
text
100
AcDbText
 10
239.192361502
 20
-4593.99193947
 30
0.0
  40
1.0
  1
SR3:r1 P=5.00E-02 
 50
0.0
 7
Standard
100
AcDbText
  0
TEXT
  5
14a
330
1F
100
AcDbEntity
  8
text
100
AcDbText
 10
197.604193107
 20
-5573.08838936
 30
0.0
  40
1.0
  1
SR2:r1 P=4.99E-02 
 50
0.0
 7
Standard
100
AcDbText
  0
TEXT
  5
14b
330
1F
100
AcDbEntity
  8
text
100
AcDbText
 10
48.2244929339
 20
-15683.949322
 30
0.0
  40
1.0
  1
BS:r2 P=2.50E+02 
 50
0.0
 7
Standard
100
AcDbText
  0
TEXT
  5
14c
330
1F
100
AcDbEntity
  8
text
100
AcDbText
 10
48.033775637
 20
-15783.6138931
 30
0.0
  40
1.0
  1
SR3:s1 P=2.50E-02 
 50
0.0
 7
Standard
100
AcDbText
  0
TEXT
  5
14d
330
1F
100
AcDbEntity
  8
text
100
AcDbText
 10
296.265863731
 20
-4595.23922876
 30
0.0
  40
1.0
  1
SR3:r1 P=2.50E+02 
 50
0.0
 7
Standard
100
AcDbText
  0
TEXT
  5
14e
330
1F
100
AcDbEntity
  8
text
100
AcDbText
 10
298.285358136
 20
-4492.61813891
 30
0.0
  40
1.0
  1
SR2:s1 P=1.25E-01 
 50
0.0
 7
Standard
100
AcDbText
  0
TEXT
  5
14f
330
1F
100
AcDbEntity
  8
text
100
AcDbText
 10
266.30220919
 20
-19316.4549726
 30
0.0
  40
1.0
  1
SR2:r1 P=2.50E+02 
 50
0.0
 7
Standard
100
AcDbText
  0
TEXT
  5
150
330
1F
100
AcDbEntity
  8
text
100
AcDbText
 10
336.327740783
 20
-3493.32489319
 30
0.0
  40
1.0
  1
SR2:t1 P=1.25E-01 
 50
0.0
 7
Standard
100
AcDbText
  0
TEXT
  5
151
330
1F
100
AcDbEntity
  8
text
100
AcDbText
 10
33.8809544692
 20
-16783.5250132
 30
0.0
  40
1.0
  1
SR3:t1 P=2.50E-02 
 50
0.0
 7
Standard
100
AcDbText
  0
TEXT
  5
152
330
1F
100
AcDbEntity
  8
text
100
AcDbText
 10
62.717860178
 20
-15684.0936947
 30
0.0
  40
1.0
  1
BS:r3 P=1.25E-02 
 50
0.0
 7
Standard
100
AcDbText
  0
TEXT
  5
153
330
1F
100
AcDbEntity
  8
text
100
AcDbText
 10
353.1375022
 20
-4595.39546216
 30
0.0
  40
1.0
  1
SR3:r1 P=1.25E-02 
 50
0.0
 7
Standard
100
AcDbText
  0
TEXT
  5
154
330
1F
100
AcDbEntity
  8
text
100
AcDbText
 10
394.721863941
 20
-5574.60430844
 30
0.0
  40
1.0
  1
SR2:r1 P=1.25E-02 
 50
0.0
 7
Standard
100
AcDbText
  0
TEXT
  5
155
330
1F
100
AcDbEntity
  8
text
100
AcDbText
 10
-15753.9444851
 20
26.5177294699
 30
0.0
  40
1.0
  1
BS:t2 P=1.25E-02 
 50
0.0
 7
Standard
100
AcDbText
  0
TEXT
  5
156
330
1F
100
AcDbEntity
  8
text
100
AcDbText
 10
-4710.91556761
 20
326.272196065
 30
0.0
  40
1.0
  1
PR3:r1 P=1.25E-02 
 50
0.0
 7
Standard
100
AcDbText
  0
TEXT
  5
157
330
1F
100
AcDbEntity
  8
text
100
AcDbText
 10
-5690.21845687
 20
362.075259406
 30
0.0
  40
1.0
  1
PR2:r1 P=1.25E-02 
 50
0.0
 7
Standard
100
AcDbText
  0
TEXT
  5
158
330
1F
100
AcDbEntity
  8
text
100
AcDbText
 10
-15753.7720416
 20
11.2069734765
 30
0.0
  40
1.0
  1
BS:t1 P=2.50E+02 
 50
0.0
 7
Standard
100
AcDbText
  0
TEXT
  5
159
330
1F
100
AcDbEntity
  8
text
100
AcDbText
 10
-15853.4865502
 20
10.9510121853
 30
0.0
  40
1.0
  1
PR3:s1 P=2.50E-02 
 50
0.0
 7
Standard
100
AcDbText
  0
TEXT
  5
15a
330
1F
100
AcDbEntity
  8
text
100
AcDbText
 10
-4710.69905415
 20
269.389270621
 30
0.0
  40
1.0
  1
PR3:r1 P=2.50E+02 
 50
0.0
 7
Standard
100
AcDbText
  0
TEXT
  5
15b
330
1F
100
AcDbEntity
  8
text
100
AcDbText
 10
-4608.19917353
 20
271.473026313
 30
0.0
  40
1.0
  1
PR2:s1 P=1.25E-01 
 50
0.0
 7
Standard
100
AcDbText
  0
TEXT
  5
15c
330
1F
100
AcDbEntity
  8
text
100
AcDbText
 10
-19452.1046524
 20
225.745280731
 30
0.0
  40
1.0
  1
PR2:r1 P=2.50E+02 
 50
0.0
 7
Standard
100
AcDbText
  0
TEXT
  5
15d
330
1F
100
AcDbEntity
  8
text
100
AcDbText
 10
-3608.21625333
 20
279.068887184
 30
0.0
  40
1.0
  1
PR2:t1 P=1.25E-01 
 50
0.0
 7
Standard
100
AcDbText
  0
TEXT
  5
15e
330
1F
100
AcDbEntity
  8
text
100
AcDbText
 10
-16853.3712984
 20
27.2486810212
 30
0.0
  40
1.0
  1
PR3:t1 P=2.50E-02 
 50
0.0
 7
Standard
100
AcDbText
  0
TEXT
  5
15f
330
1F
100
AcDbEntity
  8
text
100
AcDbText
 10
-6.3374708132
 20
23081.9796675
 30
0.0
  40
1.0
  1
ITMY:s3 P=2.48E-01 
 50
0.0
 7
Standard
100
AcDbText
  0
TEXT
  5
160
330
1F
100
AcDbEntity
  8
text
100
AcDbText
 10
-8.46838638928
 20
23211.976605
 30
0.0
  40
1.0
  1
ITMY:s2 P=2.50E-01 
 50
0.0
 7
Standard
100
AcDbText
  0
TEXT
  5
161
330
1F
100
AcDbEntity
  8
text
100
AcDbText
 10
-6.59055707329
 20
23081.9789127
 30
0.0
  40
1.0
  1
ITMY:s1 P=5.00E+02 
 50
0.0
 7
Standard
100
AcDbText
  0
TEXT
  5
162
330
1F
100
AcDbEntity
  8
text
100
AcDbText
 10
-6.59055707329
 20
23231.9757285
 30
0.0
  40
1.0
  1
Beam P=1.25E+05 
 50
0.0
 7
Standard
100
AcDbText
  0
TEXT
  5
163
330
1F
100
AcDbEntity
  8
text
100
AcDbText
 10
-8.5905570731
 20
3023211.97573
 30
0.0
  40
1.0
  1
ITMY:r1 P=1.24E+05 
 50
0.0
 7
Standard
100
AcDbText
  0
TEXT
  5
164
330
1F
100
AcDbEntity
  8
text
100
AcDbText
 10
-5.41355499807
 20
25211.9749278
 30
0.0
  40
1.0
  1
ITMY:r2 P=1.00E-03 
 50
0.0
 7
Standard
100
AcDbText
  0
TEXT
  5
165
330
1F
100
AcDbEntity
  8
text
100
AcDbText
 10
36.4980526492
 20
45.5026637509
 30
0.0
  40
1.0
  1
ITMY:t2 P=2.48E-01 
 50
0.0
 7
Standard
100
AcDbText
  0
TEXT
  5
166
330
1F
100
AcDbEntity
  8
text
100
AcDbText
 10
58.7759642278
 20
-42.7104961265
 30
0.0
  40
1.0
  1
BS:s1 P=1.24E-01 
 50
0.0
 7
Standard
100
AcDbText
  0
TEXT
  5
167
330
1F
100
AcDbEntity
  8
text
100
AcDbText
 10
-15754.3708126
 20
70.9085260539
 30
0.0
  40
1.0
  1
BS:r1 P=1.24E-01 
 50
0.0
 7
Standard
100
AcDbText
  0
TEXT
  5
168
330
1F
100
AcDbEntity
  8
text
100
AcDbText
 10
-4710.91297418
 20
293.033998186
 30
0.0
  40
1.0
  1
PR3:r1 P=1.24E-01 
 50
0.0
 7
Standard
100
AcDbText
  0
TEXT
  5
169
330
1F
100
AcDbEntity
  8
text
100
AcDbText
 10
-5690.86194753
 20
300.390301264
 30
0.0
  40
1.0
  1
PR2:r1 P=1.24E-01 
 50
0.0
 7
Standard
100
AcDbText
  0
TEXT
  5
16a
330
1F
100
AcDbEntity
  8
text
100
AcDbText
 10
107.768258687
 20
-15684.5048628
 30
0.0
  40
1.0
  1
BS:t1 P=1.24E-01 
 50
0.0
 7
Standard
100
AcDbText
  0
TEXT
  5
16b
330
1F
100
AcDbEntity
  8
text
100
AcDbText
 10
319.716199651
 20
-4595.44068424
 30
0.0
  40
1.0
  1
SR3:r1 P=1.24E-01 
 50
0.0
 7
Standard
100
AcDbText
  0
TEXT
  5
16c
330
1F
100
AcDbEntity
  8
text
100
AcDbText
 10
332.047910189
 20
-5575.39964663
 30
0.0
  40
1.0
  1
SR2:r1 P=1.24E-01 
 50
0.0
 7
Standard
100
AcDbText
  0
TEXT
  5
16d
330
1F
100
AcDbEntity
  8
text
100
AcDbText
 10
-39.6047909589
 20
-140.757527758
 30
0.0
  40
1.0
  1
BS:s3 P=6.25E-03 
 50
0.0
 7
Standard
100
AcDbText
  0
TEXT
  5
16e
330
1F
100
AcDbEntity
  8
text
100
AcDbText
 10
-53.5901554247
 20
-66.6163539415
 30
0.0
  40
1.0
  1
BS:s2 P=2.50E-02 
 50
0.0
 7
Standard
100
AcDbText
  0
TEXT
  5
16f
330
1F
100
AcDbEntity
  8
text
100
AcDbText
 10
23.1823591108
 20
-78.1959517815
 30
0.0
  40
1.0
  1
BS:s1 P=2.50E+02 
 50
0.0
 7
Standard
100
AcDbText
  0
TEXT
  5
170
330
1F
100
AcDbEntity
  8
text
100
AcDbText
 10
0.996710006854
 20
10.0003284605
 30
0.0
  40
1.0
  1
ITMY:t1 P=5.00E+02 
 50
0.0
 7
Standard
100
AcDbText
  0
TEXT
  5
171
330
1F
100
AcDbEntity
  8
text
100
AcDbText
 10
-15753.7720416
 20
11.2069734907
 30
0.0
  40
1.0
  1
BS:r1 P=2.50E+02 
 50
0.0
 7
Standard
100
AcDbText
  0
TEXT
  5
172
330
1F
100
AcDbEntity
  8
text
100
AcDbText
 10
-15853.4865502
 20
10.9510121995
 30
0.0
  40
1.0
  1
PR3:s1 P=2.50E-02 
 50
0.0
 7
Standard
100
AcDbText
  0
TEXT
  5
173
330
1F
100
AcDbEntity
  8
text
100
AcDbText
 10
-4710.69905415
 20
269.389270622
 30
0.0
  40
1.0
  1
PR3:r1 P=2.50E+02 
 50
0.0
 7
Standard
100
AcDbText
  0
TEXT
  5
174
330
1F
100
AcDbEntity
  8
text
100
AcDbText
 10
-4608.19917353
 20
271.473026315
 30
0.0
  40
1.0
  1
PR2:s1 P=1.25E-01 
 50
0.0
 7
Standard
100
AcDbText
  0
TEXT
  5
175
330
1F
100
AcDbEntity
  8
text
100
AcDbText
 10
-19452.1046524
 20
225.745280731
 30
0.0
  40
1.0
  1
PR2:r1 P=2.50E+02 
 50
0.0
 7
Standard
100
AcDbText
  0
TEXT
  5
176
330
1F
100
AcDbEntity
  8
text
100
AcDbText
 10
-3608.21625333
 20
279.068887185
 30
0.0
  40
1.0
  1
PR2:t1 P=1.25E-01 
 50
0.0
 7
Standard
100
AcDbText
  0
TEXT
  5
177
330
1F
100
AcDbEntity
  8
text
100
AcDbText
 10
-16853.3712984
 20
27.2486810357
 30
0.0
  40
1.0
  1
PR3:t1 P=2.50E-02 
 50
0.0
 7
Standard
100
AcDbText
  0
TEXT
  5
178
330
1F
100
AcDbEntity
  8
text
100
AcDbText
 10
-15753.9444851
 20
26.5177294841
 30
0.0
  40
1.0
  1
BS:r2 P=1.25E-02 
 50
0.0
 7
Standard
100
AcDbText
  0
TEXT
  5
179
330
1F
100
AcDbEntity
  8
text
100
AcDbText
 10
-4710.91556761
 20
326.272196067
 30
0.0
  40
1.0
  1
PR3:r1 P=1.25E-02 
 50
0.0
 7
Standard
100
AcDbText
  0
TEXT
  5
17a
330
1F
100
AcDbEntity
  8
text
100
AcDbText
 10
-5690.21845687
 20
362.075259408
 30
0.0
  40
1.0
  1
PR2:r1 P=1.25E-02 
 50
0.0
 7
Standard
100
AcDbText
  0
TEXT
  5
17b
330
1F
100
AcDbEntity
  8
text
100
AcDbText
 10
62.7178601923
 20
-15684.0936947
 30
0.0
  40
1.0
  1
BS:t2 P=6.25E-03 
 50
0.0
 7
Standard
100
AcDbText
  0
TEXT
  5
17c
330
1F
100
AcDbEntity
  8
text
100
AcDbText
 10
353.137502201
 20
-4595.39546216
 30
0.0
  40
1.0
  1
SR3:r1 P=6.25E-03 
 50
0.0
 7
Standard
100
AcDbText
  0
TEXT
  5
17d
330
1F
100
AcDbEntity
  8
text
100
AcDbText
 10
394.721863943
 20
-5574.60430844
 30
0.0
  40
1.0
  1
SR2:r1 P=6.24E-03 
 50
0.0
 7
Standard
100
AcDbText
  0
TEXT
  5
17e
330
1F
100
AcDbEntity
  8
text
100
AcDbText
 10
48.2244929481
 20
-15683.949322
 30
0.0
  40
1.0
  1
BS:t1 P=2.50E+02 
 50
0.0
 7
Standard
100
AcDbText
  0
TEXT
  5
17f
330
1F
100
AcDbEntity
  8
text
100
AcDbText
 10
48.0337756513
 20
-15783.6138931
 30
0.0
  40
1.0
  1
SR3:s1 P=2.50E-02 
 50
0.0
 7
Standard
100
AcDbText
  0
TEXT
  5
180
330
1F
100
AcDbEntity
  8
text
100
AcDbText
 10
296.265863732
 20
-4595.23922876
 30
0.0
  40
1.0
  1
SR3:r1 P=2.50E+02 
 50
0.0
 7
Standard
100
AcDbText
  0
TEXT
  5
181
330
1F
100
AcDbEntity
  8
text
100
AcDbText
 10
298.285358138
 20
-4492.61813891
 30
0.0
  40
1.0
  1
SR2:s1 P=1.25E-01 
 50
0.0
 7
Standard
100
AcDbText
  0
TEXT
  5
182
330
1F
100
AcDbEntity
  8
text
100
AcDbText
 10
266.30220919
 20
-19316.4549726
 30
0.0
  40
1.0
  1
SR2:r1 P=2.50E+02 
 50
0.0
 7
Standard
100
AcDbText
  0
TEXT
  5
183
330
1F
100
AcDbEntity
  8
text
100
AcDbText
 10
336.327740783
 20
-3493.32489319
 30
0.0
  40
1.0
  1
SR2:t1 P=1.25E-01 
 50
0.0
 7
Standard
100
AcDbText
  0
TEXT
  5
184
330
1F
100
AcDbEntity
  8
text
100
AcDbText
 10
33.8809544837
 20
-16783.5250132
 30
0.0
  40
1.0
  1
SR3:t1 P=2.50E-02 
 50
0.0
 7
Standard
100
AcDbText
  0
TEXT
  5
185
330
1F
100
AcDbEntity
  8
text
100
AcDbText
 10
-6.33747082042
 20
23081.9796675
 30
0.0
  40
1.0
  1
ITMY:s3 P=3.96E-11 
 50
0.0
 7
Standard
100
AcDbText
  0
TEXT
  5
186
330
1F
100
AcDbEntity
  8
text
100
AcDbText
 10
58.7759642203
 20
-42.710496134
 30
0.0
  40
1.0
  1
BS:s1 P=1.98E-11 
 50
0.0
 7
Standard
100
AcDbText
  0
TEXT
  5
187
330
1F
100
AcDbEntity
  8
text
100
AcDbText
 10
-8.4683863965
 20
23211.976605
 30
0.0
  40
1.0
  1
ITMY:s2 P=3.99E-11 
 50
0.0
 7
Standard
100
AcDbText
  0
TEXT
  5
188
330
1F
100
AcDbEntity
  8
text
100
AcDbText
 10
36.4980526417
 20
45.5026637434
 30
0.0
  40
1.0
  1
ITMY:t2 P=3.96E-11 
 50
0.0
 7
Standard
100
AcDbText
  0
TEXT
  5
189
330
1F
100
AcDbEntity
  8
text
100
AcDbText
 10
-4710.91297418
 20
293.033998185
 30
0.0
  40
1.0
  1
PR3:r1 P=1.98E-11 
 50
0.0
 7
Standard
100
AcDbText
  0
TEXT
  5
18a
330
1F
100
AcDbEntity
  8
text
100
AcDbText
 10
33.355268493
 20
-15683.7925365
 30
0.0
  40
1.0
  1
BS:r1 P=7.98E-12 
 50
0.0
 7
Standard
100
AcDbText
  0
TEXT
  5
18b
330
1F
100
AcDbEntity
  8
text
100
AcDbText
 10
-15754.3708126
 20
70.9085260462
 30
0.0
  40
1.0
  1
BS:r1 P=1.98E-11 
 50
0.0
 7
Standard
100
AcDbText
  0
TEXT
  5
18c
330
1F
100
AcDbEntity
  8
text
100
AcDbText
 10
-19690.2630657
 20
429.882895582
 30
0.0
  40
1.0
  1
PR2:r1 P=1.98E-11 
 50
0.0
 7
Standard
100
AcDbText
  0
TEXT
  5
18d
330
1F
100
AcDbEntity
  8
text
100
AcDbText
 10
239.192361503
 20
-4593.99193947
 30
0.0
  40
1.0
  1
SR3:r1 P=7.98E-12 
 50
0.0
 7
Standard
100
AcDbText
  0
TEXT
  5
18e
330
1F
100
AcDbEntity
  8
text
100
AcDbText
 10
-249.500094818
 20
-15674.923429
 30
0.0
  40
1.0
  1
SR2:r1 P=7.97E-12 
 50
0.0
 7
Standard
100
AcDbText
  0
TEXT
  5
18f
330
1F
100
AcDbEntity
  8
text
100
AcDbText
 10
-19549.5901964
 20
214.074999379
 30
0.0
  40
25.0
  1
PRM
 50
0.0
 7
Standard
100
AcDbText
  0
TEXT
  5
190
330
1F
100
AcDbEntity
  8
text
100
AcDbText
 10
3026507.10965
 20
-35.1307284835
 30
0.0
  40
37.5
  1
ETMX
 50
0.0
 7
Standard
100
AcDbText
  0
TEXT
  5
191
330
1F
100
AcDbEntity
  8
text
100
AcDbText
 10
-82.5905570882
 20
3023278.22254
 30
0.0
  40
37.5
  1
ETMY
 50
0.0
 7
Standard
100
AcDbText
  0
TEXT
  5
192
330
1F
100
AcDbEntity
  8
text
100
AcDbText
 10
-4685.64247562
 20
256.804550668
 30
0.0
  40
25.0
  1
PR2
 50
0.0
 7
Standard
100
AcDbText
  0
TEXT
  5
193
330
1F
100
AcDbEntity
  8
text
100
AcDbText
 10
227.671145199
 20
-19388.9355913
 30
0.0
  40
25.0
  1
SRM
 50
0.0
 7
Standard
100
AcDbText
  0
TEXT
  5
194
330
1F
100
AcDbEntity
  8
text
100
AcDbText
 10
260.640858953
 20
-4545.15181384
 30
0.0
  40
25.0
  1
SR2
 50
0.0
 7
Standard
100
AcDbText
  0
TEXT
  5
195
330
1F
100
AcDbEntity
  8
text
100
AcDbText
 10
9.21471583871
 20
-15756.1344271
 30
0.0
  40
25.0
  1
SR3
 50
0.0
 7
Standard
100
AcDbText
  0
TEXT
  5
196
330
1F
100
AcDbEntity
  8
text
100
AcDbText
 10
-15850.9545987
 20
-0.841698690765
 30
0.0
  40
25.0
  1
PR3
 50
0.0
 7
Standard
100
AcDbText
  0
TEXT
  5
197
330
1F
100
AcDbEntity
  8
text
100
AcDbText
 10
8.27796505273
 20
-38.2905760365
 30
0.0
  40
20.0
  1
BS
 50
0.0
 7
Standard
100
AcDbText
  0
TEXT
  5
198
330
1F
100
AcDbEntity
  8
text
100
AcDbText
 10
26357.1160223
 20
-35.1307284905
 30
0.0
  40
37.5
  1
ITMX
 50
0.0
 7
Standard
100
AcDbText
  0
TEXT
  5
199
330
1F
100
AcDbEntity
  8
text
100
AcDbText
 10
-82.5905570733
 20
23128.2289127
 30
0.0
  40
37.5
  1
ITMY
 50
0.0
 7
Standard
100
AcDbText
  0
LINE
  5
19b
330
1F
100
AcDbEntity
  8
main_beam
100
AcDbLine
 10
-19462.1074509
 20
226.716889079
 30
0.0
  11
-4700.67856835
 21
268.621244361
 31
0.0
  0
LINE
  5
19c
330
1F
100
AcDbEntity
  8
main_beam
100
AcDbLine
 10
-4700.67856835
 20
268.621244361
 30
0.0
  11
-15763.7712638
 21
12.2147217849
 31
0.0
  0
LINE
  5
19d
330
1F
100
AcDbEntity
  8
main_beam
100
AcDbLine
 10
0.0
 20
0.0
 30
0.0
  11
88.2163902143
 21
-25.0230553011
 31
0.0
  0
LINE
  5
19e
330
1F
100
AcDbEntity
  8
main_beam
100
AcDbLine
 10
-15763.7712638
 20
12.2147217849
 30
0.0
  11
0.0
 21
-1.38777878078e-14
 31
0.0
  0
LINE
  5
19f
330
1F
100
AcDbEntity
  8
main_beam
100
AcDbLine
 10
-7.59055708037
 20
23221.9757285
 30
0.0
  11
-7.59055708037
 21
23071.9789127
 31
0.0
  0
LINE
  5
1a0
330
1F
100
AcDbEntity
  8
main_beam
100
AcDbLine
 10
-7.59055708037
 20
23071.9789127
 30
0.0
  11
-7.59055708037
 21
23221.9757285
 31
0.0
  0
LINE
  5
1a1
330
1F
100
AcDbEntity
  8
main_beam
100
AcDbLine
 10
0.0
 20
0.0
 30
0.0
  11
-7.59055708037
 21
23071.9789127
 31
0.0
  0
LINE
  5
1a2
330
1F
100
AcDbEntity
  8
main_beam
100
AcDbLine
 10
-3.09086090056e-10
 20
-3.09363645812e-10
 30
0.0
  11
24.9447961721
 21
-88.0900821488
 31
0.0
  0
LINE
  5
1a3
330
1F
100
AcDbEntity
  8
main_beam
100
AcDbLine
 10
-7.59055708037
 20
23071.9789127
 30
0.0
  11
-3.10610044629e-10
 21
-3.09086090056e-10
 31
0.0
  0
LINE
  5
1a4
330
1F
100
AcDbEntity
  8
main_beam
100
AcDbLine
 10
-3.09086090056e-10
 20
-3.09363645812e-10
 30
0.0
  11
-15763.7712638
 21
12.2147217844
 31
0.0
  0
LINE
  5
1a5
330
1F
100
AcDbEntity
  8
main_beam
100
AcDbLine
 10
-15763.7712638
 20
12.2147217844
 30
0.0
  11
-4700.67856835
 21
268.621244361
 31
0.0
  0
LINE
  5
1a6
330
1F
100
AcDbEntity
  8
main_beam
100
AcDbLine
 10
-4700.67856835
 20
268.621244361
 30
0.0
  11
-19462.1074509
 21
226.716889078
 31
0.0
  0
LINE
  5
1a7
330
1F
100
AcDbEntity
  8
main_beam
100
AcDbLine
 10
24.9447961721
 20
-88.0900821488
 30
0.0
  11
47.2387795945
 21
-15693.9507403
 31
0.0
  0
LINE
  5
1a8
330
1F
100
AcDbEntity
  8
main_beam
100
AcDbLine
 10
47.2387795945
 20
-15693.9507403
 30
0.0
  11
297.490828944
 21
-4585.26428714
 31
0.0
  0
LINE
  5
1a9
330
1F
100
AcDbEntity
  8
main_beam
100
AcDbLine
 10
297.490828944
 20
-4585.26428714
 30
0.0
  11
265.280360969
 21
-19326.4527637
 31
0.0
  0
LINE
  5
1aa
330
1F
100
AcDbEntity
  8
main_beam
100
AcDbLine
 10
-7.59055708037
 20
23221.9757285
 30
0.0
  11
-7.59055708818
 21
3023221.97573
 31
0.0
  0
LINE
  5
1ab
330
1F
100
AcDbEntity
  8
main_beam
100
AcDbLine
 10
26507.1128381
 20
-16.3807284835
 30
0.0
  11
26357.1160223
 21
-16.3807284835
 31
0.0
  0
LINE
  5
1ac
330
1F
100
AcDbEntity
  8
main_beam
100
AcDbLine
 10
26357.1160223
 20
-16.3807284835
 30
0.0
  11
26507.1128381
 21
-16.3807284835
 31
0.0
  0
LINE
  5
1ad
330
1F
100
AcDbEntity
  8
main_beam
100
AcDbLine
 10
88.2163902143
 20
-25.0230553011
 30
0.0
  11
26357.1160223
 21
-16.3807284835
 31
0.0
  0
LINE
  5
1ae
330
1F
100
AcDbEntity
  8
main_beam
100
AcDbLine
 10
1.91846538655e-10
 20
1.91013871387e-10
 30
0.0
  11
24.9447961726
 21
-88.0900821483
 31
0.0
  0
LINE
  5
1af
330
1F
100
AcDbEntity
  8
main_beam
100
AcDbLine
 10
88.2163902145
 20
-25.0230553009
 30
0.0
  11
1.91124893689e-10
 21
1.91027749175e-10
 31
0.0
  0
LINE
  5
1b0
330
1F
100
AcDbEntity
  8
main_beam
100
AcDbLine
 10
26357.1160223
 20
-16.3807284835
 30
0.0
  11
88.2163902145
 21
-25.0230553009
 31
0.0
  0
LINE
  5
1b1
330
1F
100
AcDbEntity
  8
main_beam
100
AcDbLine
 10
24.9447961727
 20
-88.0900821483
 30
0.0
  11
47.2387795954
 21
-15693.9507403
 31
0.0
  0
LINE
  5
1b2
330
1F
100
AcDbEntity
  8
main_beam
100
AcDbLine
 10
47.2387795954
 20
-15693.9507403
 30
0.0
  11
297.490828944
 21
-4585.26428714
 31
0.0
  0
LINE
  5
1b3
330
1F
100
AcDbEntity
  8
main_beam
100
AcDbLine
 10
297.490828944
 20
-4585.26428714
 30
0.0
  11
265.280360972
 21
-19326.4527637
 31
0.0
  0
LINE
  5
1b4
330
1F
100
AcDbEntity
  8
main_beam
100
AcDbLine
 10
1.91846538655e-10
 20
1.91013871387e-10
 30
0.0
  11
-15763.7712638
 21
12.2147217852
 31
0.0
  0
LINE
  5
1b5
330
1F
100
AcDbEntity
  8
main_beam
100
AcDbLine
 10
-15763.7712638
 20
12.2147217852
 30
0.0
  11
-4700.67856835
 21
268.621244361
 31
0.0
  0
LINE
  5
1b6
330
1F
100
AcDbEntity
  8
main_beam
100
AcDbLine
 10
-4700.67856835
 20
268.621244361
 30
0.0
  11
-19462.1074509
 21
226.716889081
 31
0.0
  0
LINE
  5
1b7
330
1F
100
AcDbEntity
  8
main_beam
100
AcDbLine
 10
26507.1128381
 20
-16.3807284835
 30
0.0
  11
3026507.11284
 21
-16.3807284835
 31
0.0
  0
LINE
  5
1b8
330
1F
100
AcDbEntity
  8
main_beam
100
AcDbLine
 10
26507.1128381
 20
-16.3807284905
 30
0.0
  11
26357.1160223
 21
-16.3807284905
 31
0.0
  0
LINE
  5
1b9
330
1F
100
AcDbEntity
  8
main_beam
100
AcDbLine
 10
1526507.11284
 20
-16.3807284905
 30
0.0
  11
26507.1128381
 21
-16.3807284905
 31
0.0
  0
LINE
  5
1ba
330
1F
100
AcDbEntity
  8
main_beam
100
AcDbLine
 10
26507.1128381
 20
-16.3807284905
 30
0.0
  11
3026507.11284
 21
-16.3807284905
 31
0.0
  0
LINE
  5
1bb
330
1F
100
AcDbEntity
  8
main_beam
100
AcDbLine
 10
-7.13740178071e-09
 20
-7.13520909024e-09
 30
0.0
  11
24.9447961653
 21
-88.0900821556
 31
0.0
  0
LINE
  5
1bc
330
1F
100
AcDbEntity
  8
main_beam
100
AcDbLine
 10
88.2163902071
 20
-25.0230553083
 30
0.0
  11
-7.13838710364e-09
 21
-7.13520215134e-09
 31
0.0
  0
LINE
  5
1bd
330
1F
100
AcDbEntity
  8
main_beam
100
AcDbLine
 10
26357.1160223
 20
-16.3807284905
 30
0.0
  11
88.2163902071
 21
-25.0230553083
 31
0.0
  0
LINE
  5
1be
330
1F
100
AcDbEntity
  8
main_beam
100
AcDbLine
 10
24.9447961653
 20
-88.0900821556
 30
0.0
  11
47.2387795879
 21
-15693.9507403
 31
0.0
  0
LINE
  5
1bf
330
1F
100
AcDbEntity
  8
main_beam
100
AcDbLine
 10
47.2387795879
 20
-15693.9507403
 30
0.0
  11
297.490828943
 21
-4585.26428714
 31
0.0
  0
LINE
  5
1c0
330
1F
100
AcDbEntity
  8
main_beam
100
AcDbLine
 10
297.490828943
 20
-4585.26428714
 30
0.0
  11
265.28036097
 21
-19326.4527637
 31
0.0
  0
LINE
  5
1c1
330
1F
100
AcDbEntity
  8
main_beam
100
AcDbLine
 10
-7.13740178071e-09
 20
-7.13520909024e-09
 30
0.0
  11
-15763.7712638
 21
12.2147217777
 31
0.0
  0
LINE
  5
1c2
330
1F
100
AcDbEntity
  8
main_beam
100
AcDbLine
 10
-15763.7712638
 20
12.2147217777
 30
0.0
  11
-4700.67856835
 21
268.62124436
 31
0.0
  0
LINE
  5
1c3
330
1F
100
AcDbEntity
  8
main_beam
100
AcDbLine
 10
-4700.67856835
 20
268.62124436
 30
0.0
  11
-19462.1074509
 21
226.716889079
 31
0.0
  0
LINE
  5
1c4
330
1F
100
AcDbEntity
  8
main_beam
100
AcDbLine
 10
-7.59055707329
 20
23221.9757285
 30
0.0
  11
-7.59055707329
 21
23071.9789127
 31
0.0
  0
LINE
  5
1c5
330
1F
100
AcDbEntity
  8
main_beam
100
AcDbLine
 10
-7.59055707319
 20
1523221.97573
 30
0.0
  11
-7.59055707329
 21
23221.9757285
 31
0.0
  0
LINE
  5
1c6
330
1F
100
AcDbEntity
  8
main_beam
100
AcDbLine
 10
-7.59055707329
 20
23221.9757285
 30
0.0
  11
-7.5905570731
 21
3023221.97573
 31
0.0
  0
LINE
  5
1c7
330
1F
100
AcDbEntity
  8
main_beam
100
AcDbLine
 10
7.05924207978e-09
 20
7.05541181034e-09
 30
0.0
  11
24.9447961795
 21
-88.0900821414
 31
0.0
  0
LINE
  5
1c8
330
1F
100
AcDbEntity
  8
main_beam
100
AcDbLine
 10
-7.59055707329
 20
23071.9789127
 30
0.0
  11
7.0579653233e-09
 21
7.0556893661e-09
 31
0.0
  0
LINE
  5
1c9
330
1F
100
AcDbEntity
  8
main_beam
100
AcDbLine
 10
7.05924207978e-09
 20
7.05541181034e-09
 30
0.0
  11
-15763.7712638
 21
12.2147217919
 31
0.0
  0
LINE
  5
1ca
330
1F
100
AcDbEntity
  8
main_beam
100
AcDbLine
 10
-15763.7712638
 20
12.2147217919
 30
0.0
  11
-4700.67856835
 21
268.621244362
 31
0.0
  0
LINE
  5
1cb
330
1F
100
AcDbEntity
  8
main_beam
100
AcDbLine
 10
-4700.67856835
 20
268.621244362
 30
0.0
  11
-19462.1074509
 21
226.716889079
 31
0.0
  0
LINE
  5
1cc
330
1F
100
AcDbEntity
  8
main_beam
100
AcDbLine
 10
24.9447961795
 20
-88.0900821414
 30
0.0
  11
47.2387796021
 21
-15693.9507403
 31
0.0
  0
LINE
  5
1cd
330
1F
100
AcDbEntity
  8
main_beam
100
AcDbLine
 10
47.2387796021
 20
-15693.9507403
 30
0.0
  11
297.490828945
 21
-4585.26428714
 31
0.0
  0
LINE
  5
1ce
330
1F
100
AcDbEntity
  8
main_beam
100
AcDbLine
 10
297.490828945
 20
-4585.26428714
 30
0.0
  11
265.28036097
 21
-19326.4527637
 31
0.0
  0
LINE
  5
1d2
330
1F
100
AcDbEntity
  8
stray_beam
100
AcDbLine
 10
-4700.67856835
 20
268.621244361
 30
0.0
  11
-4598.11223193
 21
269.235878786
 31
0.0
  0
LINE
  5
1d3
330
1F
100
AcDbEntity
  8
stray_beam
100
AcDbLine
 10
-15763.7712638
 20
12.2147217849
 30
0.0
  11
-15863.4135022
 21
10.2755993568
 31
0.0
  0
LINE
  5
1d4
330
1F
100
AcDbEntity
  8
stray_beam
100
AcDbLine
 10
63.4404179697
 20
63.412138373
 30
0.0
  11
152.003440928
 21
38.5577616643
 31
0.0
  0
LINE
  5
1d5
330
1F
100
AcDbEntity
  8
stray_beam
100
AcDbLine
 10
88.2163902143
 20
-25.0230553011
 30
0.0
  11
63.4404179697
 21
63.412138373
 31
0.0
  0
LINE
  5
1d6
330
1F
100
AcDbEntity
  8
stray_beam
100
AcDbLine
 10
-7.59055708037
 20
23071.9789127
 30
0.0
  11
-7.45966013199
 21
23221.9757285
 31
0.0
  0
LINE
  5
1d7
330
1F
100
AcDbEntity
  8
stray_beam
100
AcDbLine
 10
-7.45966013199
 20
23221.9757285
 30
0.0
  11
-7.32874241638
 21
23071.9787985
 31
0.0
  0
LINE
  5
1d8
330
1F
100
AcDbEntity
  8
stray_beam
100
AcDbLine
 10
-7.59055708037
 20
23071.9789127
 30
0.0
  11
-35.3576960634
 21
-35.3419347961
 31
0.0
  0
LINE
  5
1d9
330
1F
100
AcDbEntity
  8
stray_beam
100
AcDbLine
 10
-35.3576960634
 20
-35.3419347961
 30
0.0
  11
-10.4980967722
 21
-123.418382545
 31
0.0
  0
LINE
  5
1da
330
1F
100
AcDbEntity
  8
stray_beam
100
AcDbLine
 10
-35.3576960634
 20
-35.3419347961
 30
0.0
  11
-15763.0346126
 21
-47.2288150934
 31
0.0
  0
LINE
  5
1db
330
1F
100
AcDbEntity
  8
stray_beam
100
AcDbLine
 10
-15763.0346126
 20
-47.2288150934
 30
0.0
  11
-4700.28161163
 21
245.047805112
 31
0.0
  0
LINE
  5
1dc
330
1F
100
AcDbEntity
  8
stray_beam
100
AcDbLine
 10
-4700.28161163
 20
245.047805112
 30
0.0
  11
-15764.437359
 21
79.9014846047
 31
0.0
  0
LINE
  5
1dd
330
1F
100
AcDbEntity
  8
stray_beam
100
AcDbLine
 10
-15764.437359
 20
79.9014846047
 30
0.0
  11
112.328230141
 21
112.278158008
 31
0.0
  0
LINE
  5
1de
330
1F
100
AcDbEntity
  8
stray_beam
100
AcDbLine
 10
112.328230141
 20
112.278158008
 30
0.0
  11
173.712741605
 21
94.9702876462
 31
0.0
  0
LINE
  5
1df
330
1F
100
AcDbEntity
  8
stray_beam
100
AcDbLine
 10
112.328230141
 20
112.278158008
 30
0.0
  11
114.813339055
 21
1112.27507012
 31
0.0
  0
LINE
  5
1e0
330
1F
100
AcDbEntity
  8
stray_beam
100
AcDbLine
 10
-10.4980967722
 20
-123.418382545
 30
0.0
  11
-12.0468350652
 21
-15693.2548505
 31
0.0
  0
LINE
  5
1e1
330
1F
100
AcDbEntity
  8
stray_beam
100
AcDbLine
 10
-12.0468350652
 20
-15693.2548505
 30
0.0
  11
274.110663928
 21
-4584.88389637
 31
0.0
  0
LINE
  5
1e2
330
1F
100
AcDbEntity
  8
stray_beam
100
AcDbLine
 10
274.110663928
 20
-4584.88389637
 30
0.0
  11
111.789115963
 21
-15694.5479915
 31
0.0
  0
LINE
  5
1e3
330
1F
100
AcDbEntity
  8
stray_beam
100
AcDbLine
 10
107.3802674
 20
107.332400901
 30
0.0
  11
182.542900964
 21
86.1361903456
 31
0.0
  0
LINE
  5
1e4
330
1F
100
AcDbEntity
  8
stray_beam
100
AcDbLine
 10
111.789115963
 20
-15694.5479915
 30
0.0
  11
132.277338982
 21
18.8954373646
 31
0.0
  0
LINE
  5
1e5
330
1F
100
AcDbEntity
  8
stray_beam
100
AcDbLine
 10
132.277338982
 20
18.8954373646
 30
0.0
  11
107.3802674
 21
107.332400901
 31
0.0
  0
LINE
  5
1e6
330
1F
100
AcDbEntity
  8
stray_beam
100
AcDbLine
 10
107.3802674
 20
107.332400901
 30
0.0
  11
109.788393175
 21
1107.32950136
 31
0.0
  0
LINE
  5
1e7
330
1F
100
AcDbEntity
  8
stray_beam
100
AcDbLine
 10
-62.9273767652
 20
-62.899325865
 30
0.0
  11
-37.8147311811
 21
-150.646697901
 31
0.0
  0
LINE
  5
1e8
330
1F
100
AcDbEntity
  8
stray_beam
100
AcDbLine
 10
24.9447961721
 20
-88.0900821488
 30
0.0
  11
-62.9273767652
 21
-62.899325865
 31
0.0
  0
LINE
  5
1e9
330
1F
100
AcDbEntity
  8
stray_beam
100
AcDbLine
 10
-15763.7712638
 20
12.2147217844
 30
0.0
  11
-15863.4894463
 21
11.9216144271
 31
0.0
  0
LINE
  5
1ea
330
1F
100
AcDbEntity
  8
stray_beam
100
AcDbLine
 10
-4700.67856835
 20
268.621244361
 30
0.0
  11
-4598.18115969
 21
270.673402145
 31
0.0
  0
LINE
  5
1eb
330
1F
100
AcDbEntity
  8
stray_beam
100
AcDbLine
 10
-4598.18115969
 20
270.673402145
 30
0.0
  11
-3598.20906214
 21
278.143617238
 31
0.0
  0
LINE
  5
1ec
330
1F
100
AcDbEntity
  8
stray_beam
100
AcDbLine
 10
-15863.4894463
 20
11.9216144271
 30
0.0
  11
-16863.3534465
 21
28.4134635191
 31
0.0
  0
LINE
  5
1ed
330
1F
100
AcDbEntity
  8
stray_beam
100
AcDbLine
 10
-62.9273767652
 20
-62.899325865
 30
0.0
  11
-15763.9385568
 21
27.5753353794
 31
0.0
  0
LINE
  5
1ee
330
1F
100
AcDbEntity
  8
stray_beam
100
AcDbLine
 10
-15763.9385568
 20
27.5753353794
 30
0.0
  11
-4700.89226898
 21
325.541795851
 31
0.0
  0
LINE
  5
1ef
330
1F
100
AcDbEntity
  8
stray_beam
100
AcDbLine
 10
-4700.89226898
 20
325.541795851
 30
0.0
  11
-5700.17335587
 21
363.453659126
 31
0.0
  0
LINE
  5
1f0
330
1F
100
AcDbEntity
  8
stray_beam
100
AcDbLine
 10
-37.8147311811
 20
-150.646697901
 30
0.0
  11
61.781955691
 21
-15694.0998969
 31
0.0
  0
LINE
  5
1f1
330
1F
100
AcDbEntity
  8
stray_beam
100
AcDbLine
 10
61.781955691
 20
-15694.0998969
 30
0.0
  11
354.400478537
 21
-4585.42526202
 31
0.0
  0
LINE
  5
1f2
330
1F
100
AcDbEntity
  8
stray_beam
100
AcDbLine
 10
354.400478537
 20
-4585.42526202
 30
0.0
  11
394.119846749
 21
-5584.63613656
 31
0.0
  0
LINE
  5
1f3
330
1F
100
AcDbEntity
  8
stray_beam
100
AcDbLine
 10
47.2387795945
 20
-15693.9507403
 30
0.0
  11
47.0109142356
 21
-15793.6115805
 31
0.0
  0
LINE
  5
1f4
330
1F
100
AcDbEntity
  8
stray_beam
100
AcDbLine
 10
297.490828944
 20
-4585.26428714
 30
0.0
  11
299.478851589
 21
-4482.6393828
 31
0.0
  0
LINE
  5
1f5
330
1F
100
AcDbEntity
  8
stray_beam
100
AcDbLine
 10
299.478851589
 20
-4482.6393828
 30
0.0
  11
337.709314359
 21
-3483.37043416
 31
0.0
  0
LINE
  5
1f6
330
1F
100
AcDbEntity
  8
stray_beam
100
AcDbLine
 10
47.0109142356
 20
-15793.6115805
 30
0.0
  11
32.7383304971
 21
-16793.509722
 31
0.0
  0
LINE
  5
1f7
330
1F
100
AcDbEntity
  8
stray_beam
100
AcDbLine
 10
-7.32874241638
 20
23071.9787985
 30
0.0
  11
35.516653274
 21
35.5008211489
 31
0.0
  0
LINE
  5
1f8
330
1F
100
AcDbEntity
  8
stray_beam
100
AcDbLine
 10
35.516653274
 20
35.5008211489
 30
0.0
  11
60.5468715894
 21
-52.6031139419
 31
0.0
  0
LINE
  5
1f9
330
1F
100
AcDbEntity
  8
stray_beam
100
AcDbLine
 10
35.516653274
 20
35.5008211489
 30
0.0
  11
-15764.3684803
 21
71.9315809368
 31
0.0
  0
LINE
  5
1fa
330
1F
100
AcDbEntity
  8
stray_beam
100
AcDbLine
 10
-15764.3684803
 20
71.9315809368
 30
0.0
  11
-4700.89504756
 21
292.233282173
 31
0.0
  0
LINE
  5
1fb
330
1F
100
AcDbEntity
  8
stray_beam
100
AcDbLine
 10
-4700.89504756
 20
292.233282173
 30
0.0
  11
-5700.85227029
 21
301.482753196
 31
0.0
  0
LINE
  5
1fc
330
1F
100
AcDbEntity
  8
stray_beam
100
AcDbLine
 10
60.5468715894
 20
-52.6031139419
 30
0.0
  11
106.797831546
 21
-15694.5077759
 31
0.0
  0
LINE
  5
1fd
330
1F
100
AcDbEntity
  8
stray_beam
100
AcDbLine
 10
106.797831546
 20
-15694.5077759
 30
0.0
  11
320.908713795
 21
-4585.46181106
 31
0.0
  0
LINE
  5
1fe
330
1F
100
AcDbEntity
  8
stray_beam
100
AcDbLine
 10
320.908713795
 20
-4585.46181106
 30
0.0
  11
331.15037929
 21
-5585.40936382
 31
0.0
  0
LINE
  5
1ff
330
1F
100
AcDbEntity
  8
stray_beam
100
AcDbLine
 10
63.4404179697
 20
63.412138373
 30
0.0
  11
68.1159715164
 21
1063.40120791
 31
0.0
  0
LINE
  5
200
330
1F
100
AcDbEntity
  8
stray_beam
100
AcDbLine
 10
152.003440928
 20
38.5577616643
 30
0.0
  11
1151.98917109
 21
43.8999972189
 31
0.0
  0
LINE
  5
201
330
1F
100
AcDbEntity
  8
stray_beam
100
AcDbLine
 10
26357.1160223
 20
-16.3807284835
 30
0.0
  11
26507.1128381
 21
-16.5116254318
 31
0.0
  0
LINE
  5
202
330
1F
100
AcDbEntity
  8
stray_beam
100
AcDbLine
 10
26507.1128381
 20
-16.5116254318
 30
0.0
  11
26357.1159081
 21
-16.6425431475
 31
0.0
  0
LINE
  5
203
330
1F
100
AcDbEntity
  8
stray_beam
100
AcDbLine
 10
40.2664461314
 20
40.2484967091
 30
0.0
  11
65.2994764972
 21
-47.8658749667
 31
0.0
  0
LINE
  5
204
330
1F
100
AcDbEntity
  8
stray_beam
100
AcDbLine
 10
26357.1160223
 20
-16.3807284835
 30
0.0
  11
128.506848282
 21
15.1371372644
 31
0.0
  0
LINE
  5
205
330
1F
100
AcDbEntity
  8
stray_beam
100
AcDbLine
 10
128.506848282
 20
15.1371372644
 30
0.0
  11
40.2664461314
 21
40.2484967091
 31
0.0
  0
LINE
  5
206
330
1F
100
AcDbEntity
  8
stray_beam
100
AcDbLine
 10
65.2994764972
 20
-47.8658749667
 30
0.0
  11
111.519712534
 21
-15694.5458464
 31
0.0
  0
LINE
  5
207
330
1F
100
AcDbEntity
  8
stray_beam
100
AcDbLine
 10
111.519712534
 20
-15694.5458464
 30
0.0
  11
321.387240276
 21
-4585.46393313
 31
0.0
  0
LINE
  5
208
330
1F
100
AcDbEntity
  8
stray_beam
100
AcDbLine
 10
321.387240276
 20
-4585.46393313
 30
0.0
  11
331.56740393
 21
-5585.41211392
 31
0.0
  0
LINE
  5
209
330
1F
100
AcDbEntity
  8
stray_beam
100
AcDbLine
 10
40.2664461314
 20
40.2484967091
 30
0.0
  11
-15764.4095227
 21
76.6449294325
 31
0.0
  0
LINE
  5
20a
330
1F
100
AcDbEntity
  8
stray_beam
100
AcDbLine
 10
-15764.4095227
 20
76.6449294325
 30
0.0
  11
-4700.89764553
 21
292.728157157
 31
0.0
  0
LINE
  5
20b
330
1F
100
AcDbEntity
  8
stray_beam
100
AcDbLine
 10
-4700.89764553
 20
292.728157157
 30
0.0
  11
-5700.85541674
 21
301.918140712
 31
0.0
  0
LINE
  5
20c
330
1F
100
AcDbEntity
  8
stray_beam
100
AcDbLine
 10
24.9447961727
 20
-88.0900821483
 30
0.0
  11
-62.9273767647
 21
-62.8993258645
 31
0.0
  0
LINE
  5
20d
330
1F
100
AcDbEntity
  8
stray_beam
100
AcDbLine
 10
-62.9273767647
 20
-62.8993258645
 30
0.0
  11
-37.8147311806
 21
-150.646697901
 31
0.0
  0
LINE
  5
20e
330
1F
100
AcDbEntity
  8
stray_beam
100
AcDbLine
 10
88.2163902145
 20
-25.0230553009
 30
0.0
  11
32.319601062
 21
-15693.7889054
 31
0.0
  0
LINE
  5
20f
330
1F
100
AcDbEntity
  8
stray_beam
100
AcDbLine
 10
32.319601062
 20
-15693.7889054
 30
0.0
  11
240.379429695
 21
-4584.01241698
 31
0.0
  0
LINE
  5
210
330
1F
100
AcDbEntity
  8
stray_beam
100
AcDbLine
 10
240.379429695
 20
-4584.01241698
 30
0.0
  11
196.163006904
 21
-5583.03439269
 31
0.0
  0
LINE
  5
211
330
1F
100
AcDbEntity
  8
stray_beam
100
AcDbLine
 10
47.2387795954
 20
-15693.9507403
 30
0.0
  11
47.0109142365
 21
-15793.6115805
 31
0.0
  0
LINE
  5
212
330
1F
100
AcDbEntity
  8
stray_beam
100
AcDbLine
 10
297.490828944
 20
-4585.26428714
 30
0.0
  11
299.478851589
 21
-4482.6393828
 31
0.0
  0
LINE
  5
213
330
1F
100
AcDbEntity
  8
stray_beam
100
AcDbLine
 10
299.478851589
 20
-4482.6393828
 30
0.0
  11
337.70931436
 21
-3483.37043416
 31
0.0
  0
LINE
  5
214
330
1F
100
AcDbEntity
  8
stray_beam
100
AcDbLine
 10
47.0109142365
 20
-15793.6115805
 30
0.0
  11
32.738330498
 21
-16793.509722
 31
0.0
  0
LINE
  5
215
330
1F
100
AcDbEntity
  8
stray_beam
100
AcDbLine
 10
-37.8147311806
 20
-150.646697901
 30
0.0
  11
61.7819556918
 21
-15694.0998969
 31
0.0
  0
LINE
  5
216
330
1F
100
AcDbEntity
  8
stray_beam
100
AcDbLine
 10
61.7819556918
 20
-15694.0998969
 30
0.0
  11
354.400478538
 21
-4585.42526202
 31
0.0
  0
LINE
  5
217
330
1F
100
AcDbEntity
  8
stray_beam
100
AcDbLine
 10
354.400478538
 20
-4585.42526202
 30
0.0
  11
394.11984675
 21
-5584.63613656
 31
0.0
  0
LINE
  5
218
330
1F
100
AcDbEntity
  8
stray_beam
100
AcDbLine
 10
-62.9273767647
 20
-62.8993258645
 30
0.0
  11
-15763.9385568
 21
27.5753353803
 31
0.0
  0
LINE
  5
219
330
1F
100
AcDbEntity
  8
stray_beam
100
AcDbLine
 10
-15763.9385568
 20
27.5753353803
 30
0.0
  11
-4700.89226898
 21
325.541795852
 31
0.0
  0
LINE
  5
21a
330
1F
100
AcDbEntity
  8
stray_beam
100
AcDbLine
 10
-4700.89226898
 20
325.541795852
 30
0.0
  11
-5700.17335587
 21
363.453659127
 31
0.0
  0
LINE
  5
21b
330
1F
100
AcDbEntity
  8
stray_beam
100
AcDbLine
 10
-15763.7712638
 20
12.2147217852
 30
0.0
  11
-15863.4894463
 21
11.921614428
 31
0.0
  0
LINE
  5
21c
330
1F
100
AcDbEntity
  8
stray_beam
100
AcDbLine
 10
-4700.67856835
 20
268.621244361
 30
0.0
  11
-4598.18115969
 21
270.673402145
 31
0.0
  0
LINE
  5
21d
330
1F
100
AcDbEntity
  8
stray_beam
100
AcDbLine
 10
-4598.18115969
 20
270.673402145
 30
0.0
  11
-3598.20906214
 21
278.143617238
 31
0.0
  0
LINE
  5
21e
330
1F
100
AcDbEntity
  8
stray_beam
100
AcDbLine
 10
-15863.4894463
 20
11.921614428
 30
0.0
  11
-16863.3534465
 21
28.41346352
 31
0.0
  0
LINE
  5
21f
330
1F
100
AcDbEntity
  8
stray_beam
100
AcDbLine
 10
-40.6590594398
 20
-40.6409350037
 30
0.0
  11
-15.8026157976
 21
-128.705751211
 31
0.0
  0
LINE
  5
220
330
1F
100
AcDbEntity
  8
stray_beam
100
AcDbLine
 10
26357.1159081
 20
-16.6425431475
 30
0.0
  11
47.5323408147
 21
-65.5755666548
 31
0.0
  0
LINE
  5
221
330
1F
100
AcDbEntity
  8
stray_beam
100
AcDbLine
 10
47.5323408147
 20
-65.5755666548
 30
0.0
  11
-40.6590594398
 21
-40.6409350037
 31
0.0
  0
LINE
  5
222
330
1F
100
AcDbEntity
  8
stray_beam
100
AcDbLine
 10
-15.8026157976
 20
-128.705751211
 30
0.0
  11
-17.3135482797
 21
-15693.1862063
 31
0.0
  0
LINE
  5
223
330
1F
100
AcDbEntity
  8
stray_beam
100
AcDbLine
 10
-17.3135482797
 20
-15693.1862063
 30
0.0
  11
273.568684074
 21
-4584.87290727
 31
0.0
  0
LINE
  5
224
330
1F
100
AcDbEntity
  8
stray_beam
100
AcDbLine
 10
273.568684074
 20
-4584.87290727
 30
0.0
  11
111.938513938
 21
-15694.5491798
 31
0.0
  0
LINE
  5
225
330
1F
100
AcDbEntity
  8
stray_beam
100
AcDbLine
 10
108.321936574
 20
108.273650311
 30
0.0
  11
180.860086882
 21
87.8197549035
 31
0.0
  0
LINE
  5
226
330
1F
100
AcDbEntity
  8
stray_beam
100
AcDbLine
 10
111.938513938
 20
-15694.5491798
 30
0.0
  11
133.217492364
 21
19.8325510798
 31
0.0
  0
LINE
  5
227
330
1F
100
AcDbEntity
  8
stray_beam
100
AcDbLine
 10
133.217492364
 20
19.8325510798
 30
0.0
  11
108.321936574
 21
108.273650311
 31
0.0
  0
LINE
  5
228
330
1F
100
AcDbEntity
  8
stray_beam
100
AcDbLine
 10
108.321936574
 20
108.273650311
 30
0.0
  11
110.780391454
 21
1108.27062831
 31
0.0
  0
LINE
  5
229
330
1F
100
AcDbEntity
  8
stray_beam
100
AcDbLine
 10
-40.6590594398
 20
-40.6409350037
 30
0.0
  11
-15762.9626353
 21
-52.4860384391
 31
0.0
  0
LINE
  5
22a
330
1F
100
AcDbEntity
  8
stray_beam
100
AcDbLine
 10
-15762.9626353
 20
-52.4860384391
 30
0.0
  11
-4700.26998006
 21
244.487612094
 31
0.0
  0
LINE
  5
22b
330
1F
100
AcDbEntity
  8
stray_beam
100
AcDbLine
 10
-4700.26998006
 20
244.487612094
 30
0.0
  11
-15764.4382528
 21
80.0068851598
 31
0.0
  0
LINE
  5
22c
330
1F
100
AcDbEntity
  8
stray_beam
100
AcDbLine
 10
-15764.4382528
 20
80.0068851598
 30
0.0
  11
113.256828616
 21
113.206342545
 31
0.0
  0
LINE
  5
22d
330
1F
100
AcDbEntity
  8
stray_beam
100
AcDbLine
 10
113.256828616
 20
113.206342545
 30
0.0
  11
172.05392242
 21
96.6298466065
 31
0.0
  0
LINE
  5
22e
330
1F
100
AcDbEntity
  8
stray_beam
100
AcDbLine
 10
113.256828616
 20
113.206342545
 30
0.0
  11
115.793637882
 21
1113.20312484
 31
0.0
  0
LINE
  5
22f
330
1F
100
AcDbEntity
  8
stray_beam
100
AcDbLine
 10
-15863.4135022
 20
10.2755993568
 30
0.0
  11
-16863.3855947
 21
2.8047014657
 31
0.0
  0
LINE
  5
230
330
1F
100
AcDbEntity
  8
stray_beam
100
AcDbLine
 10
-4598.11223193
 20
269.235878786
 30
0.0
  11
-2598.27805251
 21
243.482145321
 31
0.0
  0
LINE
  5
231
330
1F
100
AcDbEntity
  8
stray_beam
100
AcDbLine
 10
26507.1128381
 20
-16.5116254389
 30
0.0
  11
26357.1159081
 21
-16.6425431545
 31
0.0
  0
LINE
  5
232
330
1F
100
AcDbEntity
  8
stray_beam
100
AcDbLine
 10
26357.1160223
 20
-16.3807284905
 30
0.0
  11
26507.1128381
 21
-16.5116254389
 31
0.0
  0
LINE
  5
233
330
1F
100
AcDbEntity
  8
stray_beam
100
AcDbLine
 10
26507.1128381
 20
-16.5116254389
 30
0.0
  11
28507.110495
 21
-19.5730364493
 31
0.0
  0
LINE
  5
234
330
1F
100
AcDbEntity
  8
stray_beam
100
AcDbLine
 10
-40.6590594476
 20
-40.6409350115
 30
0.0
  11
-15.8026158054
 21
-128.705751219
 31
0.0
  0
LINE
  5
235
330
1F
100
AcDbEntity
  8
stray_beam
100
AcDbLine
 10
26357.1159081
 20
-16.6425431545
 30
0.0
  11
47.5323408069
 21
-65.5755666625
 31
0.0
  0
LINE
  5
236
330
1F
100
AcDbEntity
  8
stray_beam
100
AcDbLine
 10
47.5323408069
 20
-65.5755666625
 30
0.0
  11
-40.6590594476
 21
-40.6409350115
 31
0.0
  0
LINE
  5
237
330
1F
100
AcDbEntity
  8
stray_beam
100
AcDbLine
 10
-15.8026158054
 20
-128.705751219
 30
0.0
  11
-17.3135482879
 21
-15693.1862063
 31
0.0
  0
LINE
  5
238
330
1F
100
AcDbEntity
  8
stray_beam
100
AcDbLine
 10
-17.3135482879
 20
-15693.1862063
 30
0.0
  11
273.568684073
 21
-4584.87290727
 31
0.0
  0
LINE
  5
239
330
1F
100
AcDbEntity
  8
stray_beam
100
AcDbLine
 10
273.568684073
 20
-4584.87290727
 30
0.0
  11
111.938513936
 21
-15694.5491798
 31
0.0
  0
LINE
  5
23a
330
1F
100
AcDbEntity
  8
stray_beam
100
AcDbLine
 10
108.321936572
 20
108.27365031
 30
0.0
  11
180.860086885
 21
87.8197549008
 31
0.0
  0
LINE
  5
23b
330
1F
100
AcDbEntity
  8
stray_beam
100
AcDbLine
 10
111.938513936
 20
-15694.5491798
 30
0.0
  11
133.217492362
 21
19.8325510783
 31
0.0
  0
LINE
  5
23c
330
1F
100
AcDbEntity
  8
stray_beam
100
AcDbLine
 10
133.217492362
 20
19.8325510783
 30
0.0
  11
108.321936572
 21
108.27365031
 31
0.0
  0
LINE
  5
23d
330
1F
100
AcDbEntity
  8
stray_beam
100
AcDbLine
 10
108.321936572
 20
108.27365031
 30
0.0
  11
110.780391453
 21
1108.27062831
 31
0.0
  0
LINE
  5
23e
330
1F
100
AcDbEntity
  8
stray_beam
100
AcDbLine
 10
-40.6590594476
 20
-40.6409350115
 30
0.0
  11
-15762.9626353
 21
-52.4860384472
 31
0.0
  0
LINE
  5
23f
330
1F
100
AcDbEntity
  8
stray_beam
100
AcDbLine
 10
-15762.9626353
 20
-52.4860384472
 30
0.0
  11
-4700.26998006
 21
244.487612093
 31
0.0
  0
LINE
  5
240
330
1F
100
AcDbEntity
  8
stray_beam
100
AcDbLine
 10
-4700.26998006
 20
244.487612093
 30
0.0
  11
-15764.4382528
 21
80.0068851569
 31
0.0
  0
LINE
  5
241
330
1F
100
AcDbEntity
  8
stray_beam
100
AcDbLine
 10
-15764.4382528
 20
80.0068851569
 30
0.0
  11
113.256828614
 21
113.206342544
 31
0.0
  0
LINE
  5
242
330
1F
100
AcDbEntity
  8
stray_beam
100
AcDbLine
 10
113.256828614
 20
113.206342544
 30
0.0
  11
172.053922423
 21
96.6298466036
 31
0.0
  0
LINE
  5
243
330
1F
100
AcDbEntity
  8
stray_beam
100
AcDbLine
 10
113.256828614
 20
113.206342544
 30
0.0
  11
115.79363788
 21
1113.20312484
 31
0.0
  0
LINE
  5
244
330
1F
100
AcDbEntity
  8
stray_beam
100
AcDbLine
 10
24.9447961653
 20
-88.0900821556
 30
0.0
  11
-62.927376772
 21
-62.8993258718
 31
0.0
  0
LINE
  5
245
330
1F
100
AcDbEntity
  8
stray_beam
100
AcDbLine
 10
-62.927376772
 20
-62.8993258718
 30
0.0
  11
-37.8147311879
 21
-150.646697908
 31
0.0
  0
LINE
  5
246
330
1F
100
AcDbEntity
  8
stray_beam
100
AcDbLine
 10
88.2163902071
 20
-25.0230553083
 30
0.0
  11
32.3196010545
 21
-15693.7889054
 31
0.0
  0
LINE
  5
247
330
1F
100
AcDbEntity
  8
stray_beam
100
AcDbLine
 10
32.3196010545
 20
-15693.7889054
 30
0.0
  11
240.379429694
 21
-4584.01241698
 31
0.0
  0
LINE
  5
248
330
1F
100
AcDbEntity
  8
stray_beam
100
AcDbLine
 10
240.379429694
 20
-4584.01241698
 30
0.0
  11
196.163006903
 21
-5583.03439269
 31
0.0
  0
LINE
  5
249
330
1F
100
AcDbEntity
  8
stray_beam
100
AcDbLine
 10
47.2387795879
 20
-15693.9507403
 30
0.0
  11
47.010914229
 21
-15793.6115805
 31
0.0
  0
LINE
  5
24a
330
1F
100
AcDbEntity
  8
stray_beam
100
AcDbLine
 10
297.490828943
 20
-4585.26428714
 30
0.0
  11
299.478851588
 21
-4482.6393828
 31
0.0
  0
LINE
  5
24b
330
1F
100
AcDbEntity
  8
stray_beam
100
AcDbLine
 10
299.478851588
 20
-4482.6393828
 30
0.0
  11
337.709314359
 21
-3483.37043416
 31
0.0
  0
LINE
  5
24c
330
1F
100
AcDbEntity
  8
stray_beam
100
AcDbLine
 10
47.010914229
 20
-15793.6115805
 30
0.0
  11
32.7383304903
 21
-16793.509722
 31
0.0
  0
LINE
  5
24d
330
1F
100
AcDbEntity
  8
stray_beam
100
AcDbLine
 10
-37.8147311879
 20
-150.646697908
 30
0.0
  11
61.7819556843
 21
-15694.0998969
 31
0.0
  0
LINE
  5
24e
330
1F
100
AcDbEntity
  8
stray_beam
100
AcDbLine
 10
61.7819556843
 20
-15694.0998969
 30
0.0
  11
354.400478537
 21
-4585.42526202
 31
0.0
  0
LINE
  5
24f
330
1F
100
AcDbEntity
  8
stray_beam
100
AcDbLine
 10
354.400478537
 20
-4585.42526202
 30
0.0
  11
394.119846749
 21
-5584.63613656
 31
0.0
  0
LINE
  5
250
330
1F
100
AcDbEntity
  8
stray_beam
100
AcDbLine
 10
-62.927376772
 20
-62.8993258718
 30
0.0
  11
-15763.9385568
 21
27.5753353728
 31
0.0
  0
LINE
  5
251
330
1F
100
AcDbEntity
  8
stray_beam
100
AcDbLine
 10
-15763.9385568
 20
27.5753353728
 30
0.0
  11
-4700.89226898
 21
325.541795851
 31
0.0
  0
LINE
  5
252
330
1F
100
AcDbEntity
  8
stray_beam
100
AcDbLine
 10
-4700.89226898
 20
325.541795851
 30
0.0
  11
-5700.17335587
 21
363.453659126
 31
0.0
  0
LINE
  5
253
330
1F
100
AcDbEntity
  8
stray_beam
100
AcDbLine
 10
-15763.7712638
 20
12.2147217777
 30
0.0
  11
-15863.4894463
 21
11.9216144204
 31
0.0
  0
LINE
  5
254
330
1F
100
AcDbEntity
  8
stray_beam
100
AcDbLine
 10
-4700.67856835
 20
268.62124436
 30
0.0
  11
-4598.18115969
 21
270.673402144
 31
0.0
  0
LINE
  5
255
330
1F
100
AcDbEntity
  8
stray_beam
100
AcDbLine
 10
-4598.18115969
 20
270.673402144
 30
0.0
  11
-3598.20906214
 21
278.143617238
 31
0.0
  0
LINE
  5
256
330
1F
100
AcDbEntity
  8
stray_beam
100
AcDbLine
 10
-15863.4894463
 20
11.9216144204
 30
0.0
  11
-16863.3534465
 21
28.4134635123
 31
0.0
  0
LINE
  5
257
330
1F
100
AcDbEntity
  8
stray_beam
100
AcDbLine
 10
-7.4596601249
 20
23221.9757285
 30
0.0
  11
-7.32874240929
 21
23071.9787985
 31
0.0
  0
LINE
  5
258
330
1F
100
AcDbEntity
  8
stray_beam
100
AcDbLine
 10
-7.59055707329
 20
23071.9789127
 30
0.0
  11
-7.4596601249
 21
23221.9757285
 31
0.0
  0
LINE
  5
259
330
1F
100
AcDbEntity
  8
stray_beam
100
AcDbLine
 10
-7.4596601249
 20
23221.9757285
 30
0.0
  11
-4.39824911454
 21
25221.9733854
 31
0.0
  0
LINE
  5
25a
330
1F
100
AcDbEntity
  8
stray_beam
100
AcDbLine
 10
-7.32874240929
 20
23071.9787985
 30
0.0
  11
35.5166532816
 21
35.5008211566
 31
0.0
  0
LINE
  5
25b
330
1F
100
AcDbEntity
  8
stray_beam
100
AcDbLine
 10
35.5166532816
 20
35.5008211566
 30
0.0
  11
60.5468715971
 21
-52.6031139342
 31
0.0
  0
LINE
  5
25c
330
1F
100
AcDbEntity
  8
stray_beam
100
AcDbLine
 10
35.5166532816
 20
35.5008211566
 30
0.0
  11
-15764.3684803
 21
71.9315809449
 31
0.0
  0
LINE
  5
25d
330
1F
100
AcDbEntity
  8
stray_beam
100
AcDbLine
 10
-15764.3684803
 20
71.9315809449
 30
0.0
  11
-4700.89504756
 21
292.233282174
 31
0.0
  0
LINE
  5
25e
330
1F
100
AcDbEntity
  8
stray_beam
100
AcDbLine
 10
-4700.89504756
 20
292.233282174
 30
0.0
  11
-5700.85227029
 21
301.482753197
 31
0.0
  0
LINE
  5
25f
330
1F
100
AcDbEntity
  8
stray_beam
100
AcDbLine
 10
60.5468715971
 20
-52.6031139342
 30
0.0
  11
106.797831554
 21
-15694.5077759
 31
0.0
  0
LINE
  5
260
330
1F
100
AcDbEntity
  8
stray_beam
100
AcDbLine
 10
106.797831554
 20
-15694.5077759
 30
0.0
  11
320.908713796
 21
-4585.46181106
 31
0.0
  0
LINE
  5
261
330
1F
100
AcDbEntity
  8
stray_beam
100
AcDbLine
 10
320.908713796
 20
-4585.46181106
 30
0.0
  11
331.150379292
 21
-5585.40936382
 31
0.0
  0
LINE
  5
262
330
1F
100
AcDbEntity
  8
stray_beam
100
AcDbLine
 10
-62.9273767578
 20
-62.8993258576
 30
0.0
  11
-37.8147311738
 21
-150.646697894
 31
0.0
  0
LINE
  5
263
330
1F
100
AcDbEntity
  8
stray_beam
100
AcDbLine
 10
24.9447961795
 20
-88.0900821414
 30
0.0
  11
-62.9273767578
 21
-62.8993258576
 31
0.0
  0
LINE
  5
264
330
1F
100
AcDbEntity
  8
stray_beam
100
AcDbLine
 10
-15763.7712638
 20
12.2147217919
 30
0.0
  11
-15863.4894463
 21
11.9216144347
 31
0.0
  0
LINE
  5
265
330
1F
100
AcDbEntity
  8
stray_beam
100
AcDbLine
 10
-4700.67856835
 20
268.621244362
 30
0.0
  11
-4598.18115969
 21
270.673402146
 31
0.0
  0
LINE
  5
266
330
1F
100
AcDbEntity
  8
stray_beam
100
AcDbLine
 10
-4598.18115969
 20
270.673402146
 30
0.0
  11
-3598.20906214
 21
278.143617238
 31
0.0
  0
LINE
  5
267
330
1F
100
AcDbEntity
  8
stray_beam
100
AcDbLine
 10
-15863.4894463
 20
11.9216144347
 30
0.0
  11
-16863.3534465
 21
28.4134635268
 31
0.0
  0
LINE
  5
268
330
1F
100
AcDbEntity
  8
stray_beam
100
AcDbLine
 10
-62.9273767578
 20
-62.8993258576
 30
0.0
  11
-15763.9385568
 21
27.575335387
 31
0.0
  0
LINE
  5
269
330
1F
100
AcDbEntity
  8
stray_beam
100
AcDbLine
 10
-15763.9385568
 20
27.575335387
 30
0.0
  11
-4700.89226898
 21
325.541795852
 31
0.0
  0
LINE
  5
26a
330
1F
100
AcDbEntity
  8
stray_beam
100
AcDbLine
 10
-4700.89226898
 20
325.541795852
 30
0.0
  11
-5700.17335587
 21
363.453659127
 31
0.0
  0
LINE
  5
26b
330
1F
100
AcDbEntity
  8
stray_beam
100
AcDbLine
 10
-37.8147311738
 20
-150.646697894
 30
0.0
  11
61.7819556986
 21
-15694.0998969
 31
0.0
  0
LINE
  5
26c
330
1F
100
AcDbEntity
  8
stray_beam
100
AcDbLine
 10
61.7819556986
 20
-15694.0998969
 30
0.0
  11
354.400478538
 21
-4585.42526202
 31
0.0
  0
LINE
  5
26d
330
1F
100
AcDbEntity
  8
stray_beam
100
AcDbLine
 10
354.400478538
 20
-4585.42526202
 30
0.0
  11
394.11984675
 21
-5584.63613656
 31
0.0
  0
LINE
  5
26e
330
1F
100
AcDbEntity
  8
stray_beam
100
AcDbLine
 10
47.2387796021
 20
-15693.9507403
 30
0.0
  11
47.0109142432
 21
-15793.6115805
 31
0.0
  0
LINE
  5
26f
330
1F
100
AcDbEntity
  8
stray_beam
100
AcDbLine
 10
297.490828945
 20
-4585.26428714
 30
0.0
  11
299.47885159
 21
-4482.6393828
 31
0.0
  0
LINE
  5
270
330
1F
100
AcDbEntity
  8
stray_beam
100
AcDbLine
 10
299.47885159
 20
-4482.6393828
 30
0.0
  11
337.70931436
 21
-3483.37043416
 31
0.0
  0
LINE
  5
271
330
1F
100
AcDbEntity
  8
stray_beam
100
AcDbLine
 10
47.0109142432
 20
-15793.6115805
 30
0.0
  11
32.7383305048
 21
-16793.509722
 31
0.0
  0
LWPOLYLINE
  5
274
330
1F
100
AcDbEntity
  8
main_beam_width
100
AcDbPolyline
 90
10
 70
0
43
0.0
 10
-19462.1454032
 20
240.086157309
 10
-17821.9983925
 20
244.699547002
 10
-16181.8514117
 20
249.323494771
 10
-14541.7044611
 20
253.958077115
 10
-12901.5575408
 20
258.603345572
 10
-11261.4106509
 20
263.259326094
 10
-9621.26379149
 20
267.926018744
 10
-7981.11696237
 20
272.603397689
 10
-6340.97016345
 20
277.291411511
 10
-4700.8233945
 20
281.989983826
  0
LWPOLYLINE
  5
275
330
1F
100
AcDbEntity
  8
main_beam_width
100
AcDbPolyline
 90
10
 70
0
43
0.0
 10
-19462.0694986
 20
213.34762085
 10
-17821.8925235
 20
218.046329124
 10
-16181.7155185
 20
222.734478932
 10
-14541.5384834
 20
227.411993771
 10
-12901.3614178
 20
232.078822102
 10
-11261.1843219
 20
236.734937971
 10
-9621.00719555
 20
241.38034132
 10
-7980.83003887
 20
246.015057985
 10
-6340.652852
 20
250.639139388
 10
-4700.47563515
 20
255.252661924
  0
LWPOLYLINE
  5
276
330
1F
100
AcDbEntity
  8
main_beam_width
100
AcDbPolyline
 90
100
 70
0
43
0.0
 10
-4700.47562931
 20
255.252325435
 10
-4812.21121383
 20
251.687471861
 10
-4923.94679744
 20
248.122578782
 10
-5035.68238029
 20
244.557653289
 10
-5147.41796252
 20
240.992700872
 10
-5259.15354423
 20
237.427725846
 10
-5370.88912549
 20
233.862731654
 10
-5482.62470637
 20
230.297721071
 10
-5594.36028693
 20
226.732696362
 10
-5706.0958672
 20
223.167659393
 10
-5817.83144722
 20
219.602611715
 10
-5929.56702702
 20
216.037554629
 10
-6041.30260664
 20
212.472489231
 10
-6153.03818608
 20
208.907416457
 10
-6264.77376537
 20
205.342337104
 10
-6376.50934452
 20
201.777251859
 10
-6488.24492355
 20
198.212161318
 10
-6599.98050247
 20
194.647065999
 10
-6711.71608128
 20
191.081966352
 10
-6823.45166001
 20
187.516862776
 10
-6935.18723865
 20
183.951755619
 10
-7046.92281722
 20
180.386645191
 10
-7158.65839572
 20
176.821531768
 10
-7270.39397416
 20
173.256415594
 10
-7382.12955253
 20
169.691296887
 10
-7493.86513086
 20
166.126175844
 10
-7605.60070913
 20
162.561052642
 10
-7717.33628735
 20
158.995927439
 10
-7829.07186554
 20
155.43080038
 10
-7940.80744368
 20
151.865671595
 10
-8052.54302178
 20
148.300541202
 10
-8164.27859985
 20
144.73540931
 10
-8276.01417789
 20
141.170276016
 10
-8387.7497559
 20
137.605141411
 10
-8499.48533388
 20
134.040005577
 10
-8611.22091183
 20
130.47486859
 10
-8722.95648976
 20
126.90973052
 10
-8834.69206766
 20
123.34459143
 10
-8946.42764555
 20
119.779451379
 10
-9058.16322341
 20
116.214310423
 10
-9169.89880125
 20
112.649168612
 10
-9281.63437907
 20
109.084025993
 10
-9393.36995687
 20
105.51888261
 10
-9505.10553466
 20
101.953738502
 10
-9616.84111243
 20
98.3885937072
 10
-9728.57669019
 20
94.8234482612
 10
-9840.31226793
 20
91.2583021966
 10
-9952.04784566
 20
87.6931555438
 10
-10063.7834234
 20
84.1280083314
 10
-10175.5190011
 20
80.5628605863
 10
-10287.2545788
 20
76.9977123334
 10
-10398.9901565
 20
73.4325635965
 10
-10510.7257341
 20
69.8674143974
 10
-10622.4613118
 20
66.3022647571
 10
-10734.1968894
 20
62.7371146951
 10
-10845.9324671
 20
59.1719642297
 10
-10957.6680447
 20
55.6068133785
 10
-11069.4036223
 20
52.0416621576
 10
-11181.1391999
 20
48.4765105826
 10
-11292.8747775
 20
44.9113586682
 10
-11404.6103551
 20
41.346206428
 10
-11516.3459327
 20
37.7810538753
 10
-11628.0815103
 20
34.2159010223
 10
-11739.8170879
 20
30.6507478809
 10
-11851.5526655
 20
27.0855944621
 10
-11963.288243
 20
23.5204407766
 10
-12075.0238206
 20
19.9552868343
 10
-12186.7593982
 20
16.3901326449
 10
-12298.4949757
 20
12.8249782173
 10
-12410.2305532
 20
9.25982356032
 10
-12521.9661308
 20
5.69466868205
 10
-12633.7017083
 20
2.12951359038
 10
-12745.4372858
 20
-1.43564170724
 10
-12857.1728634
 20
-5.00079720366
 10
-12968.9084409
 20
-8.56595289211
 10
-13080.6440184
 20
-12.1311087661
 10
-13192.3795959
 20
-15.6962648193
 10
-13304.1151734
 20
-19.261421046
 10
-13415.8507509
 20
-22.8265774404
 10
-13527.5863284
 20
-26.3917339971
 10
-13639.3219059
 20
-29.9568907108
 10
-13751.0574834
 20
-33.5220475767
 10
-13862.7930609
 20
-37.0872045899
 10
-13974.5286384
 20
-40.6523617459
 10
-14086.2642159
 20
-44.2175190403
 10
-14197.9997933
 20
-47.7826764688
 10
-14309.7353708
 20
-51.3478340275
 10
-14421.4709483
 20
-54.9129917125
 10
-14533.2065258
 20
-58.47814952
 10
-14644.9421032
 20
-62.0433074465
 10
-14756.6776807
 20
-65.6084654886
 10
-14868.4132582
 20
-69.1736236428
 10
-14980.1488356
 20
-72.7387819061
 10
-15091.8844131
 20
-76.3039402753
 10
-15203.6199905
 20
-79.8690987475
 10
-15315.355568
 20
-83.43425732
 10
-15427.0911454
 20
-86.9994159898
 10
-15538.8267229
 20
-90.5645747544
 10
-15650.5623003
 20
-94.1297336113
 10
-15762.2978778
 20
-97.694892558
  0
LWPOLYLINE
  5
277
330
1F
100
AcDbEntity
  8
main_beam_width
100
AcDbPolyline
 90
100
 70
0
43
0.0
 10
-4700.82338718
 20
281.989138966
 10
-4812.58031289
 20
280.373954652
 10
-4924.33723952
 20
278.758809848
 10
-5036.0941669
 20
277.143697462
 10
-5147.85109491
 20
275.528612003
 10
-5259.60802344
 20
273.913549155
 10
-5371.36495241
 20
272.298505477
 10
-5483.12188176
 20
270.683478192
 10
-5594.87881144
 20
269.068465035
 10
-5706.63574141
 20
267.45346414
 10
-5818.39267162
 20
265.838473955
 10
-5930.14960205
 20
264.22349318
 10
-6041.90653267
 20
262.608520717
 10
-6153.66346347
 20
260.993555632
 10
-6265.42039441
 20
259.378597128
 10
-6377.1773255
 20
257.763644515
 10
-6488.9342567
 20
256.1486972
 10
-6600.69118802
 20
254.533754664
 10
-6712.44811944
 20
252.918816456
 10
-6824.20505095
 20
251.303882179
 10
-6935.96198254
 20
249.688951482
 10
-7047.71891421
 20
248.074024057
 10
-7159.47584594
 20
246.459099628
 10
-7271.23277774
 20
244.844177951
 10
-7382.9897096
 20
243.229258806
 10
-7494.74664151
 20
241.614341998
 10
-7606.50357348
 20
239.999427349
 10
-7718.26050549
 20
238.384514702
 10
-7830.01743754
 20
236.769603911
 10
-7941.77436963
 20
235.154694847
 10
-8053.53130176
 20
233.53978739
 10
-8165.28823393
 20
231.924881433
 10
-8277.04516612
 20
230.309976878
 10
-8388.80209835
 20
228.695073635
 10
-8500.55903061
 20
227.08017162
 10
-8612.31596289
 20
225.465270759
 10
-8724.0728952
 20
223.850370982
 10
-8835.82982753
 20
222.235472224
 10
-8947.58675988
 20
220.620574427
 10
-9059.34369226
 20
219.005677535
 10
-9171.10062465
 20
217.390781499
 10
-9282.85755707
 20
215.775886271
 10
-9394.6144895
 20
214.160991808
 10
-9506.37142195
 20
212.546098069
 10
-9618.12835441
 20
210.931205017
 10
-9729.88528689
 20
209.316312616
 10
-9841.64221938
 20
207.701420834
 10
-9953.39915189
 20
206.086529641
 10
-10065.1560844
 20
204.471639007
 10
-10176.9130169
 20
202.856748906
 10
-10288.6699495
 20
201.241859313
 10
-10400.426882
 20
199.626970204
 10
-10512.1838146
 20
198.012081557
 10
-10623.9407472
 20
196.397193352
 10
-10735.6976798
 20
194.782305568
 10
-10847.4546124
 20
193.167418188
 10
-10959.211545
 20
191.552531194
 10
-11070.9684776
 20
189.937644569
 10
-11182.7254102
 20
188.322758298
 10
-11294.4823428
 20
186.707872368
 10
-11406.2392755
 20
185.092986762
 10
-11517.9962081
 20
183.47810147
 10
-11629.7531408
 20
181.863216478
 10
-11741.5100734
 20
180.248331774
 10
-11853.2670061
 20
178.633447348
 10
-11965.0239388
 20
177.018563188
 10
-12076.7808714
 20
175.403679286
 10
-12188.5378041
 20
173.78879563
 10
-12300.2947368
 20
172.173912213
 10
-12412.0516695
 20
170.559029025
 10
-12523.8086022
 20
168.944146059
 10
-12635.5655349
 20
167.329263306
 10
-12747.3224676
 20
165.714380759
 10
-12859.0794003
 20
164.099498411
 10
-12970.836333
 20
162.484616254
 10
-13082.5932657
 20
160.869734284
 10
-13194.3501985
 20
159.254852493
 10
-13306.1071312
 20
157.639970875
 10
-13417.8640639
 20
156.025089425
 10
-13529.6209967
 20
154.410208137
 10
-13641.3779294
 20
152.795327006
 10
-13753.1348622
 20
151.180446028
 10
-13864.8917949
 20
149.565565197
 10
-13976.6487276
 20
147.950684508
 10
-14088.4056604
 20
146.335803958
 10
-14200.1625932
 20
144.720923543
 10
-14311.9195259
 20
143.106043257
 10
-14423.6764587
 20
141.491163098
 10
-14535.4333914
 20
139.876283061
 10
-14647.1903242
 20
138.261403144
 10
-14758.947257
 20
136.646523342
 10
-14870.7041898
 20
135.031643652
 10
-14982.4611225
 20
133.416764071
 10
-15094.2180553
 20
131.801884596
 10
-15205.9749881
 20
130.187005224
 10
-15317.7319209
 20
128.572125953
 10
-15429.4888537
 20
126.957246779
 10
-15541.2457865
 20
125.342367699
 10
-15653.0027192
 20
123.727488712
 10
-15764.759652
 20
122.112609815
  0
LWPOLYLINE
  5
278
330
1F
100
AcDbEntity
  8
main_beam_width
100
AcDbPolyline
 90
10
 70
0
43
0.0
 10
108.312713125
 20
108.264430973
 10
118.140276631
 20
105.47620506
 10
127.967840137
 20
102.687979147
 10
137.795403644
 20
99.8997532343
 10
147.62296715
 20
97.1115273216
 10
157.450530657
 20
94.3233014091
 10
167.278094163
 20
91.5350754968
 10
177.10565767
 20
88.7468495847
 10
186.933221177
 20
85.9586236728
 10
196.760784684
 20
83.170397761
  0
LWPOLYLINE
  5
279
330
1F
100
AcDbEntity
  8
main_beam_width
100
AcDbPolyline
 90
10
 70
0
43
0.0
 10
-108.319370878
 20
-108.271085759
 10
-98.5432961286
 20
-111.043540741
 10
-88.767221379
 20
-113.815995722
 10
-78.9911466294
 20
-116.588450704
 10
-69.2150718799
 20
-119.360905686
 10
-59.4389971305
 20
-122.133360668
 10
-49.6629223811
 20
-124.905815651
 10
-39.8868476318
 20
-127.678270633
 10
-30.1107728825
 20
-130.450725616
 10
-20.3346981332
 20
-133.223180599
  0
LWPOLYLINE
  5
27a
330
1F
100
AcDbEntity
  8
main_beam_width
100
AcDbPolyline
 90
10
 70
0
43
0.0
 10
-15764.7597056
 20
122.120505645
 10
-14001.0858064
 20
120.58003982
 10
-12237.4119071
 20
119.039595868
 10
-10473.7380078
 20
117.499173894
 10
-8710.06410846
 20
115.958774003
 10
-6946.39020912
 20
114.4183963
 10
-5182.71630977
 20
112.878040892
 10
-3419.0424104
 20
111.337707885
 10
-1655.36851101
 20
109.797397387
 10
108.305388393
 20
108.257109507
  0
LWPOLYLINE
  5
27b
330
1F
100
AcDbEntity
  8
main_beam_width
100
AcDbPolyline
 90
10
 70
0
43
0.0
 10
-15762.2979358
 20
-97.6911783034
 10
-14022.9677981
 20
-98.867451259
 10
-12283.6376605
 20
-100.043745487
 10
-10544.3075229
 20
-101.220061088
 10
-8804.97738528
 20
-102.396398162
 10
-7065.64724771
 20
-103.57275681
 10
-5326.31711015
 20
-104.749137134
 10
-3586.98697261
 20
-105.925539238
 10
-1847.65683509
 20
-107.101963223
 10
-108.326697579
 20
-108.278409194
  0
LWPOLYLINE
  5
27c
330
1F
100
AcDbEntity
  8
main_beam_width
100
AcDbPolyline
 90
10
 70
0
43
0.0
 10
98.4826986028
 20
23221.9757285
 10
98.4836257504
 20
23205.3042726
 10
98.4845528987
 20
23188.6328168
 10
98.4854800477
 20
23171.9613609
 10
98.4864071974
 20
23155.2899051
 10
98.4873343479
 20
23138.6184493
 10
98.488261499
 20
23121.9469934
 10
98.4891886508
 20
23105.2755376
 10
98.4901158033
 20
23088.6040817
 10
98.4910429566
 20
23071.9326259
  0
LWPOLYLINE
  5
27d
330
1F
100
AcDbEntity
  8
main_beam_width
100
AcDbPolyline
 90
10
 70
0
43
0.0
 10
-113.663812764
 20
23221.9757285
 10
-113.664739339
 20
23205.3145586
 10
-113.665665915
 20
23188.6533887
 10
-113.666592492
 20
23171.9922188
 10
-113.66751907
 20
23155.3310489
 10
-113.668445648
 20
23138.6698791
 10
-113.669372228
 20
23122.0087092
 10
-113.670298807
 20
23105.3475393
 10
-113.671225388
 20
23088.6863694
 10
-113.672151969
 20
23072.0251995
  0
LWPOLYLINE
  5
27e
330
1F
100
AcDbEntity
  8
main_beam_width
100
AcDbPolyline
 90
10
 70
0
43
0.0
 10
-113.6722165
 20
23072.0251996
 10
-113.671282749
 20
23088.6863694
 10
-113.670348998
 20
23105.3475393
 10
-113.669415248
 20
23122.0087092
 10
-113.668481499
 20
23138.6698791
 10
-113.667547751
 20
23155.331049
 10
-113.666614003
 20
23171.9922188
 10
-113.665680256
 20
23188.6533887
 10
-113.664746509
 20
23205.3145586
 10
-113.663812764
 20
23221.9757285
  0
LWPOLYLINE
  5
27f
330
1F
100
AcDbEntity
  8
main_beam_width
100
AcDbPolyline
 90
10
 70
0
43
0.0
 10
98.4911075274
 20
23071.9326258
 10
98.4901731997
 20
23088.6040817
 10
98.4892388726
 20
23105.2755375
 10
98.4883045462
 20
23121.9469934
 10
98.4873702206
 20
23138.6184492
 10
98.4864358956
 20
23155.2899051
 10
98.4855015713
 20
23171.9613609
 10
98.4845672478
 20
23188.6328168
 10
98.4836329249
 20
23205.3042726
 10
98.4826986028
 20
23221.9757285
  0
LWPOLYLINE
  5
280
330
1F
100
AcDbEntity
  8
main_beam_width
100
AcDbPolyline
 90
10
 70
0
43
0.0
 10
-108.326697579
 20
-108.278409194
 10
-108.920445143
 20
2467.31088073
 10
-109.514241488
 20
5042.90017064
 10
-110.108086957
 20
7618.48946054
 10
-110.701981899
 20
10194.0787504
 10
-111.295926666
 20
12769.6680403
 10
-111.889921611
 20
15345.2573301
 10
-112.483967093
 20
17920.8466199
 10
-113.078063472
 20
20496.4359098
 10
-113.672211113
 20
23072.0251996
  0
LWPOLYLINE
  5
281
330
1F
100
AcDbEntity
  8
main_beam_width
100
AcDbPolyline
 90
10
 70
0
43
0.0
 10
108.305388393
 20
108.257109507
 10
107.214718574
 20
2659.77661126
 10
106.124096653
 20
5211.29611302
 10
105.033522965
 20
7762.8156148
 10
103.942997849
 20
10314.3351166
 10
102.852521646
 20
12865.8546184
 10
101.762094702
 20
15417.3741202
 10
100.671717364
 20
17968.8936221
 10
99.5813899829
 20
20520.413124
 10
98.4911129141
 20
23071.9326258
  0
LWPOLYLINE
  5
282
330
1F
100
AcDbEntity
  8
main_beam_width
100
AcDbPolyline
 90
10
 70
0
43
0.0
 10
108.295265227
 20
108.246990853
 10
111.074767813
 20
98.4334969341
 10
113.854270399
 20
88.620003015
 10
116.633772986
 20
78.806509096
 10
119.413275572
 20
68.9930151769
 10
122.192778159
 20
59.179521258
 10
124.972280746
 20
49.3660273391
 10
127.751783333
 20
39.5525334202
 10
130.531285921
 20
29.7390395014
 10
133.310788508
 20
19.9255455827
  0
LWPOLYLINE
  5
283
330
1F
100
AcDbEntity
  8
main_beam_width
100
AcDbPolyline
 90
10
 70
0
43
0.0
 10
-108.301870885
 20
-108.253593567
 10
-105.538083507
 20
-118.015669493
 10
-102.774296129
 20
-127.777745419
 10
-100.010508751
 20
-137.539821345
 10
-97.2467213737
 20
-147.301897272
 10
-94.4829339964
 20
-157.063973198
 10
-91.7191466193
 20
-166.826049125
 10
-88.9553592424
 20
-176.588125051
 10
-86.1915718657
 20
-186.350200978
 10
-83.4277844892
 20
-196.112276904
  0
LWPOLYLINE
  5
284
330
1F
100
AcDbEntity
  8
main_beam_width
100
AcDbPolyline
 90
10
 70
0
43
0.0
 10
98.4910483019
 20
23071.9326259
 10
99.5794002262
 20
20520.4111926
 10
100.667802465
 20
17968.8897593
 10
101.756254667
 20
15417.368326
 10
102.844756484
 20
12865.8468927
 10
103.93330757
 20
10314.3254595
 10
105.021907582
 20
7762.80402625
 10
106.110556182
 20
5211.28259304
 10
107.199253033
 20
2659.76115985
 10
108.287997803
 20
108.239726669
  0
LWPOLYLINE
  5
285
330
1F
100
AcDbEntity
  8
main_beam_width
100
AcDbPolyline
 90
10
 70
0
43
0.0
 10
-113.672146624
 20
23072.0251995
 10
-113.076055297
 20
20496.4378597
 10
-112.480015235
 20
17920.8505198
 10
-111.884026076
 20
15345.2631799
 10
-111.288087462
 20
12769.67584
 10
-110.692199038
 20
10194.0885001
 10
-110.096360452
 20
7618.5011602
 10
-109.500571354
 20
5042.91382025
 10
-108.9048314
 20
2467.32648029
 10
-108.309140248
 20
-108.260859689
  0
LWPOLYLINE
  5
286
330
1F
100
AcDbEntity
  8
main_beam_width
100
AcDbPolyline
 90
10
 70
0
43
0.0
 10
-108.309140248
 20
-108.260859689
 10
-1847.64127952
 20
-107.083099539
 10
-3586.97341882
 20
-105.905361387
 10
-5326.30555813
 20
-104.727645128
 10
-7065.63769746
 20
-103.549950662
 10
-8804.9698368
 20
-102.372277885
 10
-10544.3019762
 20
-101.194626697
 10
-12283.6341155
 20
-100.016996997
 10
-14022.9662549
 20
-98.839388686
 10
-15762.2983943
 20
-97.6618016635
  0
LWPOLYLINE
  5
287
330
1F
100
AcDbEntity
  8
main_beam_width
100
AcDbPolyline
 90
10
 70
0
43
0.0
 10
108.287997803
 20
108.239726669
 10
-1655.38394716
 20
109.778681646
 10
-3419.0558921
 20
111.317659251
 10
-5182.72783702
 20
112.856659377
 10
-6946.39978193
 20
114.395681918
 10
-8710.07172681
 20
115.934726768
 10
-10473.7436717
 20
117.47379382
 10
-12237.4156165
 20
119.012882971
 10
-14001.0875614
 20
120.551994115
 10
-15764.7595062
 20
122.091127149
  0
LWPOLYLINE
  5
288
330
1F
100
AcDbEntity
  8
main_beam_width
100
AcDbPolyline
 90
100
 70
0
43
0.0
 10
-15764.7594526
 20
122.083235746
 10
-15653.0025208
 20
123.698293858
 10
-15541.245589
 20
125.31335206
 10
-15429.4886572
 20
126.928410354
 10
-15317.7317254
 20
128.543468744
 10
-15205.9747937
 20
130.15852723
 10
-15094.2178619
 20
131.773585817
 10
-14982.4609301
 20
133.388644508
 10
-14870.7039983
 20
135.003703304
 10
-14758.9470665
 20
136.618762209
 10
-14647.1901348
 20
138.233821227
 10
-14535.433203
 20
139.848880361
 10
-14423.6762712
 20
141.463939613
 10
-14311.9193395
 20
143.078998988
 10
-14200.1624077
 20
144.69405849
 10
-14088.4054759
 20
146.309118122
 10
-13976.6485442
 20
147.924177888
 10
-13864.8916124
 20
149.539237793
 10
-13753.1346807
 20
151.15429784
 10
-13641.3777489
 20
152.769358035
 10
-13529.6208172
 20
154.384418383
 10
-13417.8638854
 20
155.999478887
 10
-13306.1069537
 20
157.614539555
 10
-13194.350022
 20
159.22960039
 10
-13082.5930902
 20
160.844661398
 10
-12970.8361585
 20
162.459722586
 10
-12859.0792268
 20
164.07478396
 10
-12747.3222951
 20
165.689845526
 10
-12635.5653634
 20
167.304907291
 10
-12523.8084317
 20
168.919969262
 10
-12412.0515
 20
170.535031447
 10
-12300.2945683
 20
172.150093854
 10
-12188.5376366
 20
173.76515649
 10
-12076.7807049
 20
175.380219364
 10
-11965.0237732
 20
176.995282486
 10
-11853.2668415
 20
178.610345865
 10
-11741.5099099
 20
180.225409511
 10
-11629.7529782
 20
181.840473435
 10
-11517.9960465
 20
183.455537647
 10
-11406.2391149
 20
185.07060216
 10
-11294.4821833
 20
186.685666986
 10
-11182.7252516
 20
188.300732138
 10
-11070.96832
 20
189.91579763
 10
-10959.2113884
 20
191.530863476
 10
-10847.4544568
 20
193.145929692
 10
-10735.6975252
 20
194.760996295
 10
-10623.9405936
 20
196.376063302
 10
-10512.183662
 20
197.991130731
 10
-10400.4267304
 20
199.606198601
 10
-10288.6697989
 20
201.221266934
 10
-10176.9128673
 20
202.836335752
 10
-10065.1559358
 20
204.451405078
 10
-9953.39900426
 20
206.066474938
 10
-9841.64207275
 20
207.681545358
 10
-9729.88514125
 20
209.296616366
 10
-9618.12820977
 20
210.911687994
 10
-9506.3712783
 20
212.526760275
 10
-9394.61434685
 20
214.141833243
 10
-9282.85741542
 20
215.756906935
 10
-9171.100484
 20
217.371981394
 10
-9059.3435526
 20
218.987056662
 10
-8947.58662122
 20
220.602132785
 10
-8835.82968987
 20
222.217209816
 10
-8724.07275853
 20
223.832287808
 10
-8612.31582722
 20
225.447366821
 10
-8500.55889593
 20
227.062446919
 10
-8388.80196467
 20
228.677528171
 10
-8277.04503344
 20
230.292610654
 10
-8165.28810224
 20
231.90769445
 10
-8053.53117107
 20
233.52277965
 10
-7941.77423994
 20
235.137866351
 10
-7830.01730884
 20
236.752954662
 10
-7718.26037779
 20
238.368044701
 10
-7606.50344677
 20
239.983136599
 10
-7494.74651581
 20
241.598230501
 10
-7382.98958489
 20
243.213326566
 10
-7271.23265403
 20
244.828424969
 10
-7159.47572322
 20
246.443525909
 10
-7047.71879248
 20
248.058629604
 10
-6935.96186181
 20
249.6737363
 10
-6824.20493122
 20
251.288846272
 10
-6712.44800071
 20
252.903959829
 10
-6600.69107029
 20
254.519077323
 10
-6488.93413997
 20
256.13419915
 10
-6377.17720976
 20
257.749325765
 10
-6265.42027968
 20
259.364457685
 10
-6153.66334973
 20
260.979595506
 10
-6041.90641993
 20
262.594739917
 10
-5930.14949031
 20
264.20989172
 10
-5818.39256087
 20
265.825051848
 10
-5706.63563166
 20
267.440221403
 10
-5594.8787027
 20
269.055401688
 10
-5483.12177402
 20
270.670594257
 10
-5371.36484567
 20
272.285800981
 10
-5259.60791769
 20
273.901024131
 10
-5147.85099017
 20
275.51626649
 10
-5036.09406317
 20
277.131531508
 10
-4924.33713679
 20
278.746823514
 10
-4812.58021117
 20
280.362148015
 10
-4700.82328647
 20
281.977512124
  0
LWPOLYLINE
  5
289
330
1F
100
AcDbEntity
  8
main_beam_width
100
AcDbPolyline
 90
100
 70
0
43
0.0
 10
-15762.2983364
 20
-97.6655141384
 10
-15650.5627564
 20
-94.1005344491
 10
-15538.8271763
 20
-90.5355548495
 10
-15427.0915963
 20
-86.9705753423
 10
-15315.3560162
 20
-83.40559593
 10
-15203.6204362
 20
-79.8406166152
 10
-15091.8848561
 20
-76.2756374006
 10
-14980.1492761
 20
-72.7106582891
 10
-14868.413696
 20
-69.1456792837
 10
-14756.678116
 20
-65.5807003874
 10
-14644.9425359
 20
-62.0157216034
 10
-14533.2069559
 20
-58.450742935
 10
-14421.4713758
 20
-54.8857643857
 10
-14309.7357957
 20
-51.320785959
 10
-14198.0002157
 20
-47.7558076587
 10
-14086.2646356
 20
-44.1908294887
 10
-13974.5290555
 20
-40.625851453
 10
-13862.7934754
 20
-37.0608735557
 10
-13751.0578954
 20
-33.4958958014
 10
-13639.3223153
 20
-29.9309181946
 10
-13527.5867352
 20
-26.3659407399
 10
-13415.8511551
 20
-22.8009634426
 10
-13304.115575
 20
-19.2359863076
 10
-13192.3799949
 20
-15.6710093405
 10
-13080.6444148
 20
-12.1060325469
 10
-12968.9088347
 20
-8.54105593281
 10
-12857.1732546
 20
-4.9760795044
 10
-12745.4376744
 20
-1.41110326816
 10
-12633.7020943
 20
2.15387276908
 10
-12521.9665142
 20
5.7188486002
 10
-12410.2309341
 20
9.28382421773
 10
-12298.4953539
 20
12.8487996138
 10
-12186.7597738
 20
16.4137747802
 10
-12075.0241936
 20
19.9787497083
 10
-11963.2886135
 20
23.543724389
 10
-11851.5530333
 20
27.1086988127
 10
-11739.8174532
 20
30.6736729694
 10
-11628.081873
 20
34.2386468485
 10
-11516.3462928
 20
37.8036204389
 10
-11404.6107126
 20
41.3685937288
 10
-11292.8751324
 20
44.9335667058
 10
-11181.1395522
 20
48.4985393568
 10
-11069.403972
 20
52.0635116679
 10
-10957.6683918
 20
55.6284836247
 10
-10845.9328116
 20
59.1934552115
 10
-10734.1972313
 20
62.758426412
 10
-10622.4616511
 20
66.3233972088
 10
-10510.7260708
 20
69.8883675834
 10
-10398.9904906
 20
73.4533375164
 10
-10287.2549103
 20
77.0183069868
 10
-10175.51933
 20
80.5832759726
 10
-10063.7837497
 20
84.1482444503
 10
-9952.04816942
 20
87.7132123945
 10
-9840.3125891
 20
91.2781797787
 10
-9728.57700876
 20
94.8431465741
 10
-9616.84142841
 20
98.4081127502
 10
-9505.10584804
 20
101.973078274
 10
-9393.37026766
 20
105.538043111
 10
-9281.63468726
 20
109.103007223
 10
-9169.89910685
 20
112.667970569
 10
-9058.16352641
 20
116.232933106
 10
-8946.42794596
 20
119.797894787
 10
-8834.69236548
 20
123.362855562
 10
-8722.95678498
 20
126.927815375
 10
-8611.22120446
 20
130.492774168
 10
-8499.48562392
 20
134.057731876
 10
-8387.75004334
 20
137.622688429
 10
-8276.01446274
 20
141.187643752
 10
-8164.27888211
 20
144.752597763
 10
-8052.54330144
 20
148.31755037
 10
-7940.80772074
 20
151.882501476
 10
-7829.07214001
 20
155.447450972
 10
-7717.33655923
 20
159.012398741
 10
-7605.60097841
 20
162.57734465
 10
-7493.86539754
 20
166.142288557
 10
-7382.12981663
 20
169.707230301
 10
-7270.39423565
 20
173.272169706
 10
-7158.65865462
 20
176.837106576
 10
-7046.92307353
 20
180.40204069
 10
-6935.18749237
 20
183.966971805
 10
-6823.45191113
 20
187.531899645
 10
-6711.71632981
 20
191.096823899
 10
-6599.98074839
 20
194.661744217
 10
-6488.24516688
 20
198.226660203
 10
-6376.50958526
 20
201.791571402
 10
-6264.77400351
 20
205.356477297
 10
-6153.03842162
 20
208.921377291
 10
-6041.30283959
 20
212.486270696
 10
-5929.56725738
 20
216.051156712
 10
-5817.83167498
 20
219.616034402
 10
-5706.09609236
 20
223.180902668
 10
-5594.36050949
 20
226.745760205
 10
-5482.62492634
 20
230.31060546
 10
-5370.88934285
 20
233.875436562
 10
-5259.15375899
 20
237.44025124
 10
-5147.41817469
 20
241.005046712
 10
-5035.68258985
 20
244.569819527
 10
-4923.9470044
 20
248.134565358
 10
-4812.21141819
 20
251.699278697
 10
-4700.47583106
 20
255.263952434
  0
LWPOLYLINE
  5
28a
330
1F
100
AcDbEntity
  8
main_beam_width
100
AcDbPolyline
 90
10
 70
0
43
0.0
 10
-4700.47583688
 20
255.264288212
 10
-6340.65306264
 20
250.660507985
 10
-7980.83025828
 20
246.046117898
 10
-9621.00742351
 20
241.421017641
 10
-11261.1845581
 20
236.785131846
 10
-12901.361662
 20
232.138410995
 10
-14541.538735
 20
227.48083202
 10
-16181.7157772
 20
222.812398587
 10
-17821.8927887
 20
218.133141052
 10
-19462.0697697
 20
213.443116086
  0
LWPOLYLINE
  5
28b
330
1F
100
AcDbEntity
  8
main_beam_width
100
AcDbPolyline
 90
10
 70
0
43
0.0
 10
-4700.82329378
 20
281.978355641
 10
-6340.97004259
 20
277.270041232
 10
-7981.11682153
 20
272.57233631
 10
-9621.26363087
 20
267.885341175
 10
-11261.4104708
 20
263.209131188
 10
-12901.5573415
 20
258.543755862
 10
-14541.7042431
 20
253.889238261
 10
-16181.8511754
 20
249.245574718
 10
-17821.9981385
 20
244.612734877
 10
-19462.1451321
 20
239.990662069
  0
LWPOLYLINE
  5
28c
330
1F
100
AcDbEntity
  8
main_beam_width
100
AcDbPolyline
 90
10
 70
0
43
0.0
 10
133.303576109
 20
19.9183565027
 10
135.968321527
 20
-1726.16906939
 10
138.633089011
 20
-3472.25649525
 10
141.297878456
 20
-5218.34392108
 10
143.962689761
 20
-6964.43134688
 10
146.627522823
 20
-8710.51877265
 10
149.29237754
 20
-10456.6061984
 10
151.957253812
 20
-12202.6936241
 10
154.622151538
 20
-13948.7810498
 10
157.287070619
 20
-15694.8684754
  0
LWPOLYLINE
  5
28d
330
1F
100
AcDbEntity
  8
main_beam_width
100
AcDbPolyline
 90
10
 70
0
43
0.0
 10
-83.4349988015
 20
-196.119467892
 10
-81.1432416768
 20
-1917.94473428
 10
-78.8515059976
 20
-3639.7700007
 10
-76.5597916648
 20
-5361.59526715
 10
-74.2680985797
 20
-7083.42053362
 10
-71.9764266446
 20
-8805.24580013
 10
-69.6847757619
 20
-10527.0710667
 10
-67.393145835
 20
-12248.8963332
 10
-65.1015367677
 20
-13970.7215998
 10
-62.8099484644
 20
-15692.5468665
  0
LWPOLYLINE
  5
28e
330
1F
100
AcDbEntity
  8
main_beam_width
100
AcDbPolyline
 90
100
 70
0
43
0.0
 10
-62.8136703245
 20
-15692.5468108
 10
-59.3052832567
 20
-15580.3501342
 10
-55.7968962792
 20
-15468.1534576
 10
-52.2885093943
 20
-15355.956781
 10
-48.7801226046
 20
-15243.7601044
 10
-45.2717359128
 20
-15131.5634278
 10
-41.7633493217
 20
-15019.3667512
 10
-38.2549628342
 20
-14907.1700746
 10
-34.7465764531
 20
-14794.973398
 10
-31.2381901817
 20
-14682.7767214
 10
-27.7298040231
 20
-14570.5800448
 10
-24.2214179807
 20
-14458.3833681
 10
-20.7130320579
 20
-14346.1866915
 10
-17.2046462584
 20
-14233.9900149
 10
-13.6962605859
 20
-14121.7933383
 10
-10.1878750443
 20
-14009.5966617
 10
-6.67948963784
 20
-13897.399985
 10
-3.17110437062
 20
-13785.2033084
 10
0.337280752884
 20
-13673.0066318
 10
3.84566572804
 20
-13560.8099551
 10
7.35405055003
 20
-13448.6132785
 10
10.8624352138
 20
-13336.4166018
 10
14.3708197141
 20
-13224.2199252
 10
17.8792040455
 20
-13112.0232485
 10
21.3875882021
 20
-12999.8265719
 10
24.8959721781
 20
-12887.6298952
 10
28.404355967
 20
-12775.4332186
 10
31.9127395623
 20
-12663.2365419
 10
35.4211229572
 20
-12551.0398652
 10
38.9295061444
 20
-12438.8431885
 10
42.4378891162
 20
-12326.6465119
 10
45.9462718649
 20
-12214.4498352
 10
49.4546543819
 20
-12102.2531585
 10
52.9630366587
 20
-11990.0564818
 10
56.4714186858
 20
-11877.8598051
 10
59.9798004537
 20
-11765.6631284
 10
63.4881819521
 20
-11653.4664517
 10
66.9965631703
 20
-11541.2697749
 10
70.504944097
 20
-11429.0730982
 10
74.0133247202
 20
-11316.8764215
 10
77.5217050274
 20
-11204.6797447
 10
81.0300850051
 20
-11092.483068
 10
84.5384646394
 20
-10980.2863912
 10
88.0468439153
 20
-10868.0897144
 10
91.5552228172
 20
-10755.8930377
 10
95.0636013282
 20
-10643.6963609
 10
98.5719794308
 20
-10531.4996841
 10
102.080357106
 20
-10419.3030073
 10
105.588734334
 20
-10307.1063305
 10
109.097111094
 20
-10194.9096537
 10
112.605487362
 20
-10082.7129768
 10
116.113863116
 20
-9970.51629998
 10
119.622238328
 20
-9858.31962312
 10
123.130612973
 20
-9746.12294625
 10
126.63898702
 20
-9633.92626937
 10
130.147360439
 20
-9521.72959247
 10
133.655733195
 20
-9409.53291555
 10
137.164105253
 20
-9297.33623863
 10
140.672476574
 20
-9185.13956168
 10
144.180847116
 20
-9072.94288472
 10
147.689216836
 20
-8960.74620774
 10
151.197585684
 20
-8848.54953073
 10
154.705953609
 20
-8736.35285371
 10
158.214320555
 20
-8624.15617667
 10
161.72268646
 20
-8511.9594996
 10
165.231051258
 20
-8399.76282251
 10
168.739414878
 20
-8287.56614539
 10
172.247777241
 20
-8175.36946824
 10
175.756138263
 20
-8063.17279107
 10
179.264497849
 20
-7950.97611386
 10
182.772855899
 20
-7838.77943661
 10
186.2812123
 20
-7726.58275933
 10
189.78956693
 20
-7614.38608201
 10
193.297919652
 20
-7502.18940464
 10
196.806270318
 20
-7389.99272723
 10
200.314618762
 20
-7277.79604977
 10
203.822964799
 20
-7165.59937226
 10
207.331308225
 20
-7053.40269468
 10
210.83964881
 20
-6941.20601705
 10
214.3479863
 20
-6829.00933934
 10
217.856320404
 20
-6716.81266155
 10
221.364650799
 20
-6604.61598369
 10
224.872977116
 20
-6492.41930573
 10
228.381298937
 20
-6380.22262767
 10
231.889615784
 20
-6268.02594949
 10
235.397927109
 20
-6155.8292712
 10
238.90623228
 20
-6043.63259276
 10
242.414530566
 20
-5931.43591417
 10
245.922821116
 20
-5819.23923541
 10
249.431102929
 20
-5707.04255644
 10
252.939374827
 20
-5594.84587726
 10
256.44763541
 20
-5482.64919782
 10
259.955883
 20
-5370.45251809
 10
263.464115571
 20
-5258.25583801
 10
266.972330652
 20
-5146.05915755
 10
270.480525198
 20
-5033.86247662
 10
273.988695418
 20
-4921.66579515
 10
277.49683652
 20
-4809.46911301
 10
281.00494237
 20
-4697.27243009
 10
284.51300498
 20
-4585.07574619
  0
LWPOLYLINE
  5
28f
330
1F
100
AcDbEntity
  8
main_beam_width
100
AcDbPolyline
 90
100
 70
0
43
0.0
 10
157.279149951
 20
-15694.8684269
 10
158.826471394
 20
-15582.6515371
 10
160.373792928
 20
-15470.4346474
 10
161.921114554
 20
-15358.2177576
 10
163.468436275
 20
-15246.0008679
 10
165.015758095
 20
-15133.7839782
 10
166.563080015
 20
-15021.5670884
 10
168.110402038
 20
-14909.3501987
 10
169.657724169
 20
-14797.133309
 10
171.205046408
 20
-14684.9164192
 10
172.752368761
 20
-14572.6995295
 10
174.29969123
 20
-14460.4826398
 10
175.847013818
 20
-14348.2657501
 10
177.39433653
 20
-14236.0488604
 10
178.941659369
 20
-14123.8319707
 10
180.488982339
 20
-14011.6150809
 10
182.036305444
 20
-13899.3981912
 10
183.583628688
 20
-13787.1813015
 10
185.130952076
 20
-13674.9644118
 10
186.678275612
 20
-13562.7475221
 10
188.225599302
 20
-13450.5306325
 10
189.77292315
 20
-13338.3137428
 10
191.320247161
 20
-13226.0968531
 10
192.867571341
 20
-13113.8799634
 10
194.414895696
 20
-13001.6630737
 10
195.962220232
 20
-12889.446184
 10
197.509544955
 20
-12777.2292944
 10
199.056869871
 20
-12665.0124047
 10
200.604194988
 20
-12552.795515
 10
202.151520313
 20
-12440.5786254
 10
203.698845853
 20
-12328.3617357
 10
205.246171616
 20
-12216.1448461
 10
206.793497611
 20
-12103.9279565
 10
208.340823847
 20
-11991.7110668
 10
209.888150332
 20
-11879.4941772
 10
211.435477076
 20
-11767.2772876
 10
212.98280409
 20
-11655.0603979
 10
214.530131384
 20
-11542.8435083
 10
216.077458969
 20
-11430.6266187
 10
217.624786858
 20
-11318.4097291
 10
219.172115064
 20
-11206.1928395
 10
220.719443598
 20
-11093.97595
 10
222.266772477
 20
-10981.7590604
 10
223.814101713
 20
-10869.5421708
 10
225.361431324
 20
-10757.3252813
 10
226.908761326
 20
-10645.1083917
 10
228.456091736
 20
-10532.8915022
 10
230.003422574
 20
-10420.6746126
 10
231.550753859
 20
-10308.4577231
 10
233.098085612
 20
-10196.2408336
 10
234.645417857
 20
-10084.0239441
 10
236.192750617
 20
-9971.80705461
 10
237.740083918
 20
-9859.59016514
 10
239.287417786
 20
-9747.37327567
 10
240.834752253
 20
-9635.15638622
 10
242.382087348
 20
-9522.93949679
 10
243.929423106
 20
-9410.72260737
 10
245.476759562
 20
-9298.50571796
 10
247.024096755
 20
-9186.28882857
 10
248.571434727
 20
-9074.0719392
 10
250.118773521
 20
-8961.85504985
 10
251.666113188
 20
-8849.63816052
 10
253.213453778
 20
-8737.42127121
 10
254.760795347
 20
-8625.20438192
 10
256.308137957
 20
-8512.98749265
 10
257.855481674
 20
-8400.77060341
 10
259.40282657
 20
-8288.55371419
 10
260.950172723
 20
-8176.33682501
 10
262.497520217
 20
-8064.11993585
 10
264.044869147
 20
-7951.90304673
 10
265.592219614
 20
-7839.68615764
 10
267.139571729
 20
-7727.46926858
 10
268.686925617
 20
-7615.25237957
 10
270.234281412
 20
-7503.0354906
 10
271.781639264
 20
-7390.81860168
 10
273.328999339
 20
-7278.60171281
 10
274.87636182
 20
-7166.38482399
 10
276.423726913
 20
-7054.16793523
 10
277.971094847
 20
-6941.95104653
 10
279.518465878
 20
-6829.73415791
 10
281.065840294
 20
-6717.51726936
 10
282.613218421
 20
-6605.30038089
 10
284.160600626
 20
-6493.08349252
 10
285.707987328
 20
-6380.86660424
 10
287.255379005
 20
-6268.64971608
 10
288.802776205
 20
-6156.43282804
 10
290.350179559
 20
-6044.21594015
 10
291.897589799
 20
-5931.9990524
 10
293.445007778
 20
-5819.78216484
 10
294.992434494
 20
-5707.56527746
 10
296.539871126
 20
-5595.34839032
 10
298.087319076
 20
-5483.13150342
 10
299.63478002
 20
-5370.91461682
 10
301.182255986
 20
-5258.69773056
 10
302.729749444
 20
-5146.48084469
 10
304.277263438
 20
-5034.26395929
 10
305.824801764
 20
-4922.04707443
 10
307.37236921
 20
-4809.83019023
 10
308.919971913
 20
-4697.61330682
 10
310.46761786
 20
-4585.39642439
  0
LWPOLYLINE
  5
290
330
1F
100
AcDbEntity
  8
main_beam_width
100
AcDbPolyline
 90
10
 70
0
43
0.0
 10
310.468438669
 20
-4585.39643096
 10
306.823826586
 20
-6223.29458632
 10
303.19079048
 20
-7861.19276696
 10
299.569477007
 20
-9499.09097323
 10
295.960002793
 20
-11136.9892054
 10
292.362452854
 20
-12774.8874635
 10
288.776879435
 20
-14412.7857479
 10
285.203301272
 20
-16050.6840585
 10
281.641703341
 20
-17688.5823952
 10
278.09203706
 20
-19326.480758
  0
LWPOLYLINE
  5
291
330
1F
100
AcDbEntity
  8
main_beam_width
100
AcDbPolyline
 90
10
 70
0
43
0.0
 10
284.513330927
 20
-4585.07575163
 10
281.000050472
 20
-6223.00352348
 10
277.475193649
 20
-7860.93127003
 10
273.938613789
 20
-9498.85899096
 10
270.390194258
 20
-11136.786686
 10
266.82985003
 20
-12774.714355
 10
263.257528858
 20
-14412.6419979
 10
259.673211998
 20
-16050.5696145
 10
256.076914477
 20
-17688.4972049
 10
252.468684878
 20
-19326.4247693
  0
LWPOLYLINE
  5
292
330
1F
100
AcDbEntity
  8
main_beam_width
100
AcDbPolyline
 90
39
 70
0
43
0.0
 10
-113.663812764
 20
23221.9757285
 10
-109.251857087
 20
102169.34415
 10
-104.895112513
 20
181116.712571
 10
-100.601337842
 20
260064.080992
 10
-96.3796690769
 20
339011.449413
 10
-92.2408950682
 20
417958.817834
 10
-88.1977855089
 20
496906.186255
 10
-84.2654752059
 20
575853.554676
 10
-80.4619033374
 20
654800.923097
 10
-76.8082960077
 20
733748.291518
 10
-73.3296618831
 20
812695.659939
 10
-70.0552403778
 20
891643.02836
 10
-67.0187966621
 20
970590.396781
 10
-64.2585983494
 20
1049537.7652
 10
-61.8168457593
 20
1128485.13362
 10
-59.7382905658
 20
1207432.50204
 10
-58.0678200072
 20
1286379.87047
 10
-56.8469706592
 20
1365327.23889
 10
-56.1096948083
 20
1444274.60731
 10
-55.878147766
 20
1523221.97573
 10
-56.1595630794
 20
1602169.34415
 10
-56.9451669401
 20
1681116.71257
 10
-58.2114907562
 20
1760064.08099
 10
-59.9236496622
 20
1839011.44941
 10
-62.0396018222
 20
1917958.81783
 10
-64.5143360182
 20
1996906.18625
 10
-67.3032607956
 20
2075853.55468
 10
-70.3645134839
 20
2154800.9231
 10
-73.6602510503
 20
2233748.29152
 10
-77.1571551081
 20
2312695.65994
 10
-80.8264151157
 20
2391643.02836
 10
-84.6434122147
 20
2470590.39678
 10
-88.5872626163
 20
2549537.7652
 10
-92.6403211726
 20
2628485.13362
 10
-96.7877020895
 20
2707432.50204
 10
-101.016844733
 20
2786379.87047
 10
-105.317134901
 20
2865327.23889
 10
-109.679582159
 20
2944274.60731
 10
-114.096548986
 20
3023221.97573
  0
LWPOLYLINE
  5
293
330
1F
100
AcDbEntity
  8
main_beam_width
100
AcDbPolyline
 90
39
 70
0
43
0.0
 10
98.4826986028
 20
23221.9757285
 10
94.0707429256
 20
102169.34415
 10
89.7139983512
 20
181116.712571
 10
85.4202236803
 20
260064.080992
 10
81.1985549145
 20
339011.449413
 10
77.0597809054
 20
417958.817834
 10
73.0166713457
 20
496906.186255
 10
69.0843610422
 20
575853.554676
 10
65.2807891734
 20
654800.923097
 10
61.6271818433
 20
733748.291518
 10
58.1485477182
 20
812695.659939
 10
54.8741262126
 20
891643.02836
 10
51.8376824964
 20
970590.396781
 10
49.0774841833
 20
1049537.7652
 10
46.6357315928
 20
1128485.13362
 10
44.5571763988
 20
1207432.50204
 10
42.8867058399
 20
1286379.87047
 10
41.6658564915
 20
1365327.23889
 10
40.9285806402
 20
1444274.60731
 10
40.6970335975
 20
1523221.97573
 10
40.9784489105
 20
1602169.34415
 10
41.7640527707
 20
1681116.71257
 10
43.0303765865
 20
1760064.08099
 10
44.742535492
 20
1839011.44941
 10
46.8584876516
 20
1917958.81783
 10
49.3332218472
 20
1996906.18625
 10
52.1221466242
 20
2075853.55468
 10
55.1833993121
 20
2154800.9231
 10
58.479136878
 20
2233748.29152
 10
61.9760409354
 20
2312695.65994
 10
65.6453009427
 20
2391643.02836
 10
69.4622980412
 20
2470590.39678
 10
73.4061484424
 20
2549537.7652
 10
77.4592069983
 20
2628485.13362
 10
81.6065879148
 20
2707432.50204
 10
85.8357305579
 20
2786379.87047
 10
90.1360207252
 20
2865327.23889
 10
94.4984679833
 20
2944274.60731
 10
98.9154348095
 20
3023221.97573
  0
LWPOLYLINE
  5
294
330
1F
100
AcDbEntity
  8
main_beam_width
100
AcDbPolyline
 90
10
 70
0
43
0.0
 10
26507.1128381
 20
-121.94473056
 10
26490.4414069
 20
-121.945647406
 10
26473.7699758
 20
-121.946564254
 10
26457.0985446
 20
-121.947481101
 10
26440.4271135
 20
-121.94839795
 10
26423.7556823
 20
-121.949314799
 10
26407.0842512
 20
-121.950231649
 10
26390.41282
 20
-121.9511485
 10
26373.7413889
 20
-121.952065351
 10
26357.0699577
 20
-121.952982203
  0
LWPOLYLINE
  5
295
330
1F
100
AcDbEntity
  8
main_beam_width
100
AcDbPolyline
 90
10
 70
0
43
0.0
 10
26507.1128381
 20
89.1832735931
 10
26490.4516435
 20
89.1841898765
 10
26473.7904489
 20
89.1851061607
 10
26457.1292544
 20
89.1860224455
 10
26440.4680598
 20
89.186938731
 10
26423.8068652
 20
89.1878550173
 10
26407.1456706
 20
89.1887713042
 10
26390.4844761
 20
89.1896875919
 10
26373.8232815
 20
89.1906038803
 10
26357.1620869
 20
89.1915201694
  0
LWPOLYLINE
  5
296
330
1F
100
AcDbEntity
  8
main_beam_width
100
AcDbPolyline
 90
10
 70
0
43
0.0
 10
26357.162087
 20
89.1916896024
 10
26373.8232815
 20
89.1907544874
 10
26390.4844761
 20
89.1898193732
 10
26407.1456707
 20
89.1888842596
 10
26423.8068653
 20
89.1879491467
 10
26440.4680598
 20
89.1870140346
 10
26457.1292544
 20
89.1860789232
 10
26473.790449
 20
89.1851438124
 10
26490.4516435
 20
89.1842087024
 10
26507.1128381
 20
89.1832735931
  0
LWPOLYLINE
  5
297
330
1F
100
AcDbEntity
  8
main_beam_width
100
AcDbPolyline
 90
10
 70
0
43
0.0
 10
26357.0699576
 20
-121.95315174
 10
26373.7413888
 20
-121.952216051
 10
26390.41282
 20
-121.951280362
 10
26407.0842511
 20
-121.950344674
 10
26423.7556823
 20
-121.949408986
 10
26440.4271135
 20
-121.9484733
 10
26457.0985446
 20
-121.947537614
 10
26473.7699758
 20
-121.946601928
 10
26490.4414069
 20
-121.945666244
 10
26507.1128381
 20
-121.94473056
  0
LWPOLYLINE
  5
298
330
1F
100
AcDbEntity
  8
main_beam_width
100
AcDbPolyline
 90
10
 70
0
43
0.0
 10
196.753383246
 20
83.1630202535
 10
3103.46546152
 20
83.83261684
 10
6010.17753978
 20
84.5022759797
 10
8916.88961801
 20
85.171998174
 10
11823.6016962
 20
85.8417839296
 10
14730.3137744
 20
86.5116337584
 10
17637.0258526
 20
87.1815481776
 10
20543.7379307
 20
87.8515277101
 10
23450.4500089
 20
88.5215728842
 10
26357.162087
 20
89.1916842338
  0
LWPOLYLINE
  5
299
330
1F
100
AcDbEntity
  8
main_beam_width
100
AcDbPolyline
 90
10
 70
0
43
0.0
 10
-20.3421015718
 20
-133.230560101
 10
2910.48146048
 20
-131.977256207
 10
5841.30502255
 20
-130.724015874
 10
8772.12858464
 20
-129.470839617
 10
11702.9521468
 20
-128.217727954
 10
14633.7757089
 20
-126.96468141
 10
17564.599271
 20
-125.711700515
 10
20495.4228332
 20
-124.458785804
 10
23426.2463954
 20
-123.20593782
 10
26357.0699576
 20
-121.953157109
  0
LWPOLYLINE
  5
29a
330
1F
100
AcDbEntity
  8
main_beam_width
100
AcDbPolyline
 90
10
 70
0
43
0.0
 10
108.260396354
 20
108.212137524
 10
111.039890901
 20
98.3986463907
 10
113.819385448
 20
88.5851552578
 10
116.598879995
 20
78.7716641249
 10
119.378374543
 20
68.958172992
 10
122.157869091
 20
59.1446818592
 10
124.937363639
 20
49.3311907265
 10
127.716858187
 20
39.5176995938
 10
130.496352735
 20
29.7042084611
 10
133.275847283
 20
19.8907173285
  0
LWPOLYLINE
  5
29b
330
1F
100
AcDbEntity
  8
main_beam_width
100
AcDbPolyline
 90
10
 70
0
43
0.0
 10
-108.266917199
 20
-108.218655462
 10
-105.503121806
 20
-117.980734225
 10
-102.739326414
 20
-127.742812988
 10
-99.9755310214
 20
-137.504891751
 10
-97.2117356293
 20
-147.266970514
 10
-94.4479402374
 20
-157.029049278
 10
-91.6841448456
 20
-166.791128041
 10
-88.9203494541
 20
-176.553206804
 10
-86.1565540627
 20
-186.315285567
 10
-83.3927586715
 20
-196.077364331
  0
LWPOLYLINE
  5
29c
330
1F
100
AcDbEntity
  8
main_beam_width
100
AcDbPolyline
 90
10
 70
0
43
0.0
 10
-20.2822123616
 20
-133.170864522
 10
-30.0582906766
 20
-130.398396848
 10
-39.8343689917
 20
-127.625929174
 10
-49.6104473069
 20
-124.853461501
 10
-59.3865256221
 20
-122.080993827
 10
-69.1626039373
 20
-119.308526154
 10
-78.9386822526
 20
-116.53605848
 10
-88.714760568
 20
-113.763590808
 10
-98.4908388834
 20
-110.991123135
 10
-108.266917199
 20
-108.218655462
  0
LWPOLYLINE
  5
29d
330
1F
100
AcDbEntity
  8
main_beam_width
100
AcDbPolyline
 90
10
 70
0
43
0.0
 10
196.708436559
 20
83.1182188862
 10
186.880876536
 20
85.9064320674
 10
177.053316513
 20
88.6946452488
 10
167.22575649
 20
91.4828584304
 10
157.398196467
 20
94.2710716121
 10
147.570636444
 20
97.0592847941
 10
137.743076422
 20
99.8474979762
 10
127.915516399
 20
102.635711159
 10
118.087956376
 20
105.423924341
 10
108.260396354
 20
108.212137524
  0
LWPOLYLINE
  5
29e
330
1F
100
AcDbEntity
  8
main_beam_width
100
AcDbPolyline
 90
10
 70
0
43
0.0
 10
26357.0699577
 20
-121.952987464
 10
23426.2522442
 20
-123.199957122
 10
20495.4345306
 20
-124.446994064
 10
17564.6168171
 20
-125.694097755
 10
14633.7991036
 20
-126.941267663
 10
11702.9813901
 20
-128.188503262
 10
8772.16367668
 20
-129.435804034
 10
5841.34596325
 20
-130.683169463
 10
2910.52824984
 20
-131.93059904
 10
-20.2894635447
 20
-133.178092261
  0
LWPOLYLINE
  5
29f
330
1F
100
AcDbEntity
  8
main_beam_width
100
AcDbPolyline
 90
10
 70
0
43
0.0
 10
26357.1620869
 20
89.1915149088
 10
23450.4442092
 20
88.5156414333
 10
20543.7263316
 20
87.8398341447
 10
17637.0084539
 20
87.1640925196
 10
14730.2905762
 20
86.4884160401
 10
11823.5726984
 20
85.8128041935
 10
8916.85482069
 20
85.1372564724
 10
6010.13694291
 20
84.4617723744
 10
3103.41906512
 20
83.7863514026
 10
196.7011873
 20
83.1109930648
  0
LWPOLYLINE
  5
2a0
330
1F
100
AcDbEntity
  8
main_beam_width
100
AcDbPolyline
 90
10
 70
0
43
0.0
 10
133.268727479
 20
19.8836205432
 10
135.931334196
 20
-1726.19990894
 10
138.593963001
 20
-3472.2834384
 10
141.256613792
 20
-5218.36696782
 10
143.919286467
 20
-6964.45049721
 10
146.581980925
 20
-8710.53402657
 10
149.244697066
 20
-10456.6175559
 10
151.907434789
 20
-12202.7010852
 10
154.570193995
 20
-13948.7846145
 10
157.232974586
 20
-15694.8681437
  0
LWPOLYLINE
  5
2a1
330
1F
100
AcDbEntity
  8
main_beam_width
100
AcDbPolyline
 90
10
 70
0
43
0.0
 10
-83.3998803435
 20
-196.084462977
 10
-81.1060147962
 20
-1917.91370874
 10
-78.8121707166
 20
-3639.74295454
 10
-76.5183480066
 20
-5361.57220037
 10
-74.2245465688
 20
-7083.40144622
 10
-71.9307663062
 20
-8805.23069211
 10
-69.6370071227
 20
-10527.059938
 10
-67.3432689225
 20
-12248.889184
 10
-65.0495516105
 20
-13970.71843
 10
-62.755855092
 20
-15692.547676
  0
LWPOLYLINE
  5
2a2
330
1F
100
AcDbEntity
  8
main_beam_width
100
AcDbPolyline
 90
100
 70
0
43
0.0
 10
-62.7595737554
 20
-15692.5476203
 10
-59.2515370194
 20
-15580.3509388
 10
-55.7435003737
 20
-15468.1542573
 10
-52.2354638209
 20
-15355.9575758
 10
-48.7274273634
 20
-15243.7608943
 10
-45.2193910039
 20
-15131.5642128
 10
-41.7113547453
 20
-15019.3675313
 10
-38.2033185904
 20
-14907.1708498
 10
-34.6952825421
 20
-14794.9741683
 10
-31.1872466036
 20
-14682.7774868
 10
-27.6792107782
 20
-14570.5808053
 10
-24.171175069
 20
-14458.3841238
 10
-20.6631394797
 20
-14346.1874423
 10
-17.1551040139
 20
-14233.9907607
 10
-13.6470686752
 20
-14121.7940792
 10
-10.1390334677
 20
-14009.5973977
 10
-6.63099839551
 20
-13897.4007161
 10
-3.12296346277
 20
-13785.2040346
 10
0.385071326031
 20
-13673.0073531
 10
3.89310596625
 20
-13560.8106715
 10
7.40114045307
 20
-13448.61399
 10
10.9091747814
 20
-13336.4173084
 10
14.4172089461
 20
-13224.2206269
 10
17.9252429415
 20
-13112.0239453
 10
21.4332767619
 20
-12999.8272638
 10
24.9413104013
 20
-12887.6305822
 10
28.4493438535
 20
-12775.4339007
 10
31.9573771117
 20
-12663.2372191
 10
35.4654101691
 20
-12551.0405375
 10
38.9734430185
 20
-12438.8438559
 10
42.4814756523
 20
-12326.6471743
 10
45.9895080624
 20
-12214.4504927
 10
49.4975402406
 20
-12102.2538112
 10
53.0055721781
 20
-11990.0571296
 10
56.5136038656
 20
-11877.8604479
 10
60.0216352934
 20
-11765.6637663
 10
63.5296664513
 20
-11653.4670847
 10
67.0376973285
 20
-11541.2704031
 10
70.5457279137
 20
-11429.0737215
 10
74.0537581949
 20
-11316.8770398
 10
77.5617881595
 20
-11204.6803582
 10
81.0698177942
 20
-11092.4836765
 10
84.5778470848
 20
-10980.2869949
 10
88.0858760164
 20
-10868.0903132
 10
91.5939045733
 20
-10755.8936315
 10
95.1019327387
 20
-10643.6969498
 10
98.6099604949
 20
-10531.5002681
 10
102.117987823
 20
-10419.3035864
 10
105.626014703
 20
-10307.1069047
 10
109.134041114
 20
-10194.910223
 10
112.642067033
 20
-10082.7135412
 10
116.150092436
 20
-9970.5168595
 10
119.658117297
 20
-9858.32017774
 10
123.166141589
 20
-9746.12349597
 10
126.674165283
 20
-9633.92681418
 10
130.182188346
 20
-9521.73013238
 10
133.690210747
 20
-9409.53345056
 10
137.198232447
 20
-9297.33676873
 10
140.706253409
 20
-9185.14008688
 10
144.214273592
 20
-9072.94340502
 10
147.72229295
 20
-8960.74672313
 10
151.230311435
 20
-8848.55004123
 10
154.738328994
 20
-8736.3533593
 10
158.246345572
 20
-8624.15667736
 10
161.754361108
 20
-8511.95999538
 10
165.262375535
 20
-8399.76331339
 10
168.770388781
 20
-8287.56663137
 10
172.278400767
 20
-8175.36994932
 10
175.78641141
 20
-8063.17326724
 10
179.294420614
 20
-7950.97658512
 10
182.802428278
 20
-7838.77990297
 10
186.31043429
 20
-7726.58322079
 10
189.818438527
 20
-7614.38653856
 10
193.326440852
 20
-7502.1898563
 10
196.834441116
 20
-7389.99317398
 10
200.342439153
 20
-7277.79649162
 10
203.850434778
 20
-7165.5998092
 10
207.358427786
 20
-7053.40312672
 10
210.866417946
 20
-6941.20644418
 10
214.374405003
 20
-6829.00976156
 10
217.882388667
 20
-6716.81307888
 10
221.390368612
 20
-6604.6163961
 10
224.898344469
 20
-6492.41971324
 10
228.406315818
 20
-6380.22303027
 10
231.91428218
 20
-6268.02634719
 10
235.422243005
 20
-6155.82966399
 10
238.93019766
 20
-6043.63298065
 10
242.438145411
 20
-5931.43629715
 10
245.946085402
 20
-5819.23961348
 10
249.454016632
 20
-5707.04292961
 10
252.961937916
 20
-5594.84624552
 10
256.46984785
 20
-5482.64956117
 10
259.977744749
 20
-5370.45287652
 10
263.48562658
 20
-5258.25619154
 10
266.99349086
 20
-5146.05950616
 10
270.501334533
 20
-5033.86282032
 10
274.009153789
 20
-4921.66613393
 10
277.516943814
 20
-4809.46944688
 10
281.024698445
 20
-4697.27275903
 10
284.53240965
 20
-4585.0760702
  0
LWPOLYLINE
  5
2a3
330
1F
100
AcDbEntity
  8
main_beam_width
100
AcDbPolyline
 90
100
 70
0
43
0.0
 10
157.225062164
 20
-15694.8680952
 10
158.772733855
 20
-15582.6512072
 10
160.320405637
 20
-15470.4343192
 10
161.868077511
 20
-15358.2174313
 10
163.415749481
 20
-15246.0005433
 10
164.963421549
 20
-15133.7836554
 10
166.511093717
 20
-15021.5667674
 10
168.05876599
 20
-14909.3498795
 10
169.606438369
 20
-14797.1329915
 10
171.154110858
 20
-14684.9161036
 10
172.70178346
 20
-14572.6992156
 10
174.249456178
 20
-14460.4823277
 10
175.797129016
 20
-14348.2654397
 10
177.344801978
 20
-14236.0485518
 10
178.892475066
 20
-14123.8316639
 10
180.440148286
 20
-14011.6147759
 10
181.987821642
 20
-13899.397888
 10
183.535495136
 20
-13787.1810001
 10
185.083168775
 20
-13674.9641122
 10
186.630842563
 20
-13562.7472242
 10
188.178516503
 20
-13450.5303363
 10
189.726190603
 20
-13338.3134484
 10
191.273864866
 20
-13226.0965605
 10
192.821539298
 20
-13113.8796726
 10
194.369213905
 20
-13001.6627847
 10
195.916888694
 20
-12889.4458968
 10
197.46456367
 20
-12777.2290089
 10
199.012238839
 20
-12665.012121
 10
200.55991421
 20
-12552.7952331
 10
202.107589788
 20
-12440.5783453
 10
203.655265582
 20
-12328.3614574
 10
205.2029416
 20
-12216.1445695
 10
206.75061785
 20
-12103.9276817
 10
208.298294341
 20
-11991.7107938
 10
209.845971082
 20
-11879.493906
 10
211.393648082
 20
-11767.2770181
 10
212.941325352
 20
-11655.0601303
 10
214.489002904
 20
-11542.8432424
 10
216.036680747
 20
-11430.6263546
 10
217.584358894
 20
-11318.4094668
 10
219.132037358
 20
-11206.192579
 10
220.679716152
 20
-11093.9756912
 10
222.22739529
 20
-10981.7588034
 10
223.775074787
 20
-10869.5419156
 10
225.322754659
 20
-10757.3250278
 10
226.870434922
 20
-10645.10814
 10
228.418115595
 20
-10532.8912523
 10
229.965796696
 20
-10420.6743645
 10
231.513478245
 20
-10308.4574768
 10
233.061160263
 20
-10196.240589
 10
234.608842774
 20
-10084.0237013
 10
236.1565258
 20
-9971.8068136
 10
237.704209368
 20
-9859.5899259
 10
239.251893506
 20
-9747.37303821
 10
240.799578242
 20
-9635.15615054
 10
242.347263608
 20
-9522.93926289
 10
243.894949638
 20
-9410.72237524
 10
245.442636368
 20
-9298.50548762
 10
246.990323835
 20
-9186.28860001
 10
248.538012083
 20
-9074.07171241
 10
250.085701156
 20
-8961.85482484
 10
251.633391102
 20
-8849.63793728
 10
253.181081973
 20
-8737.42104975
 10
254.728773826
 20
-8625.20416224
 10
256.276466722
 20
-8512.98727475
 10
257.824160726
 20
-8400.77038729
 10
259.371855912
 20
-8288.55349985
 10
260.919552357
 20
-8176.33661244
 10
262.467250147
 20
-8064.11972507
 10
264.014949375
 20
-7951.90283772
 10
265.562650144
 20
-7839.68595041
 10
267.110352565
 20
-7727.46906314
 10
268.658056761
 20
-7615.2521759
 10
270.20576287
 20
-7503.03528871
 10
271.753471039
 20
-7390.81840157
 10
273.301181437
 20
-7278.60151448
 10
274.848894247
 20
-7166.38462744
 10
276.396609675
 20
-7054.16774046
 10
277.94432795
 20
-6941.95085354
 10
279.492049329
 20
-6829.73396669
 10
281.039774102
 20
-6717.51707992
 10
282.587502595
 20
-6605.30019324
 10
284.135235176
 20
-6493.08330664
 10
285.682972266
 20
-6380.86642015
 10
287.230714344
 20
-6268.64953377
 10
288.778461959
 20
-6156.43264752
 10
290.326215746
 20
-6044.2157614
 10
291.873976438
 20
-5931.99887544
 10
293.421744891
 20
-5819.78198965
 10
294.969522107
 20
-5707.56510406
 10
296.517309269
 20
-5595.3482187
 10
298.065107783
 20
-5483.13133359
 10
299.612919334
 20
-5370.91444878
 10
301.160745957
 20
-5258.6975643
 10
302.708590131
 20
-5146.48068022
 10
304.256454916
 20
-5034.26379661
 10
305.804344122
 20
-4922.04691354
 10
307.352262561
 20
-4809.83003113
 10
308.900216399
 20
-4697.61314952
 10
310.448213668
 20
-4585.39626889
  0
LWPOLYLINE
  5
2a4
330
1F
100
AcDbEntity
  8
main_beam_width
100
AcDbPolyline
 90
10
 70
0
43
0.0
 10
310.449032213
 20
-4585.39627545
 10
306.78830057
 20
-6223.29440815
 10
303.139241108
 20
-7861.19256636
 10
299.502046499
 20
-9499.09075048
 10
295.876880058
 20
-11136.9889609
 10
292.263873531
 20
-12774.8871979
 10
288.66312526
 20
-14412.7854616
 10
285.074698783
 20
-16050.6837523
 10
281.498621914
 20
-17688.58207
 10
277.934886343
 20
-19326.4804147
  0
LWPOLYLINE
  5
2a5
330
1F
100
AcDbEntity
  8
main_beam_width
100
AcDbPolyline
 90
10
 70
0
43
0.0
 10
284.532734434
 20
-4585.07607562
 10
281.035573875
 20
-6223.0038514
 10
277.526740748
 20
-7860.93160168
 10
274.006042366
 20
-9498.85932603
 10
270.473315402
 20
-11136.7870241
 10
266.928428099
 20
-12774.7146956
 10
263.371282108
 20
-14412.6423403
 10
259.801813885
 20
-16050.5699581
 10
256.219995612
 20
-17688.4975489
 10
252.625835601
 20
-19326.4251127
  0
LWPOLYLINE
  5
2a6
330
1F
100
AcDbEntity
  8
main_beam_width
100
AcDbPolyline
 90
10
 70
0
43
0.0
 10
-108.274093218
 20
-108.225828282
 10
-1847.61022063
 20
-107.045937291
 10
-3586.94634805
 20
-105.866068321
 10
-5326.28247549
 20
-104.686221268
 10
-7065.61860295
 20
-103.506396032
 10
-8804.95473043
 20
-102.326592512
 10
-10544.2908579
 20
-101.146810609
 10
-12283.6269854
 20
-99.9670502215
 10
-14022.963113
 20
-98.7873112519
 10
-15762.2992405
 20
-97.6075936017
  0
LWPOLYLINE
  5
2a7
330
1F
100
AcDbEntity
  8
main_beam_width
100
AcDbPolyline
 90
10
 70
0
43
0.0
 10
108.253222228
 20
108.204966596
 10
-1655.41481788
 20
109.741760251
 10
-3419.08285797
 20
111.278576558
 10
-5182.75089804
 20
112.815415411
 10
-6946.41893809
 20
114.352276704
 10
-8710.08697813
 20
115.889160332
 10
-10473.7550181
 20
117.42606619
 10
-12237.4230581
 20
118.962994175
 10
-14001.0910981
 20
120.499944185
 10
-15764.7591381
 20
122.036916115
  0
LWPOLYLINE
  5
2a8
330
1F
100
AcDbEntity
  8
main_beam_width
100
AcDbPolyline
 90
100
 70
0
43
0.0
 10
-15764.7590846
 20
122.029032957
 10
-15653.0021548
 20
123.644440684
 10
-15541.245225
 20
125.259848501
 10
-15429.4882952
 20
126.875256411
 10
-15317.7313654
 20
128.490664416
 10
-15205.9744356
 20
130.106072518
 10
-15094.2175058
 20
131.721480721
 10
-14982.460576
 20
133.336889027
 10
-14870.7036463
 20
134.952297439
 10
-14758.9467165
 20
136.567705961
 10
-14647.1897867
 20
138.183114595
 10
-14535.4328569
 20
139.798523345
 10
-14423.6759272
 20
141.413932214
 10
-14311.9189974
 20
143.029341206
 10
-14200.1620676
 20
144.644750325
 10
-14088.4051379
 20
146.260159574
 10
-13976.6482081
 20
147.875568957
 10
-13864.8912784
 20
149.49097848
 10
-13753.1343486
 20
151.106388145
 10
-13641.3774189
 20
152.721797959
 10
-13529.6204891
 20
154.337207924
 10
-13417.8635594
 20
155.952618048
 10
-13306.1066297
 20
157.568028334
 10
-13194.3496999
 20
159.183438788
 10
-13082.5927702
 20
160.798849416
 10
-12970.8358405
 20
162.414260224
 10
-12859.0789108
 20
164.029671218
 10
-12747.3219811
 20
165.645082404
 10
-12635.5650513
 20
167.26049379
 10
-12523.8081216
 20
168.875905382
 10
-12412.0511919
 20
170.491317188
 10
-12300.2942622
 20
172.106729216
 10
-12188.5373325
 20
173.722141474
 10
-12076.7804029
 20
175.337553971
 10
-11965.0234732
 20
176.952966716
 10
-11853.2665435
 20
178.568379718
 10
-11741.5096138
 20
180.183792988
 10
-11629.7526842
 20
181.799206536
 10
-11517.9957545
 20
183.414620373
 10
-11406.2388249
 20
185.030034511
 10
-11294.4818953
 20
186.645448962
 10
-11182.7249656
 20
188.260863741
 10
-11070.968036
 20
189.876278859
 10
-10959.2111064
 20
191.491694333
 10
-10847.4541768
 20
193.107110178
 10
-10735.6972472
 20
194.722526409
 10
-10623.9403176
 20
196.337943045
 10
-10512.183388
 20
197.953360104
 10
-10400.4264584
 20
199.568777606
 10
-10288.6695289
 20
201.184195571
 10
-10176.9125993
 20
202.799614021
 10
-10065.1556698
 20
204.415032981
 10
-9953.39874028
 20
206.030452475
 10
-9841.64181077
 20
207.645872531
 10
-9729.88488128
 20
209.261293176
 10
-9618.1279518
 20
210.876714442
 10
-9506.37102233
 20
212.492136361
 10
-9394.61409288
 20
214.10755897
 10
-9282.85716345
 20
215.722982304
 10
-9171.10023403
 20
217.338406406
 10
-9059.34330464
 20
218.953831318
 10
-8947.58637526
 20
220.569257088
 10
-8835.8294459
 20
222.184683767
 10
-8724.07251657
 20
223.800111409
 10
-8612.31558726
 20
225.415540074
 10
-8500.55865798
 20
227.030969827
 10
-8388.80172872
 20
228.646400736
 10
-8277.04479949
 20
230.261832878
 10
-8165.28787029
 20
231.877266336
 10
-8053.53094113
 20
233.4927012
 10
-7941.774012
 20
235.108137569
 10
-7830.0170829
 20
236.723575552
 10
-7718.26015385
 20
238.339015266
 10
-7606.50322484
 20
239.954456844
 10
-7494.74629587
 20
241.56990043
 10
-7382.98936696
 20
243.185346183
 10
-7271.2324381
 20
244.800794281
 10
-7159.4755093
 20
246.41624492
 10
-7047.71858057
 20
248.031698322
 10
-6935.9616519
 20
249.647154731
 10
-6824.20472331
 20
251.262614424
 10
-6712.4477948
 20
252.878077712
 10
-6600.69086639
 20
254.493544946
 10
-6488.93393807
 20
256.109016525
 10
-6377.17700987
 20
257.724492904
 10
-6265.42008179
 20
259.339974602
 10
-6153.66315384
 20
260.955462217
 10
-6041.90622605
 20
262.570956441
 10
-5930.14929844
 20
264.186458077
 10
-5818.39237101
 20
265.801968064
 10
-5706.63544381
 20
267.417487505
 10
-5594.87851685
 20
269.033017709
 10
-5483.12159018
 20
270.648560237
 10
-5371.36466384
 20
272.264116966
 10
-5259.60773788
 20
273.879690177
 10
-5147.85081237
 20
275.495282665
 10
-5036.09388738
 20
277.110897895
 10
-4924.33696302
 20
278.726540216
 10
-4812.58003942
 20
280.342215162
 10
-4700.82311674
 20
281.957929881
  0
LWPOLYLINE
  5
2a9
330
1F
100
AcDbEntity
  8
main_beam_width
100
AcDbPolyline
 90
100
 70
0
43
0.0
 10
-15762.2991826
 20
-97.6113028755
 10
-15650.5635974
 20
-94.0466728828
 10
-15538.8280123
 20
-90.4820429801
 10
-15427.0924271
 20
-86.9174131699
 10
-15315.356842
 20
-83.3527834547
 10
-15203.6212568
 20
-79.7881538371
 10
-15091.8856717
 20
-76.2235243199
 10
-14980.1500865
 20
-72.658894906
 10
-14868.4145013
 20
-69.0942655983
 10
-14756.6789162
 20
-65.5296363998
 10
-14644.943331
 20
-61.9650073139
 10
-14533.2077458
 20
-58.4003783438
 10
-14421.4721606
 20
-54.8357494928
 10
-14309.7365754
 20
-51.2711207648
 10
-14198.0009903
 20
-47.7064921633
 10
-14086.2654051
 20
-44.1418636922
 10
-13974.5298199
 20
-40.5772353557
 10
-13862.7942347
 20
-37.0126071579
 10
-13751.0586495
 20
-33.4479791032
 10
-13639.3230643
 20
-29.8833511962
 10
-13527.5874791
 20
-26.3187234417
 10
-13415.8518939
 20
-22.7540958446
 10
-13304.1163087
 20
-19.1894684103
 10
-13192.3807235
 20
-15.624841144
 10
-13080.6451382
 20
-12.0602140516
 10
-12968.909553
 20
-8.49558713895
 10
-12857.1739678
 20
-4.93096041226
 10
-12745.4383826
 20
-1.36633387806
 10
-12633.7027973
 20
2.19829245683
 10
-12521.9672121
 20
5.76291858526
 10
-12410.2316268
 20
9.32754449975
 10
-12298.4960416
 20
12.8921701924
 10
-12186.7604563
 20
16.4567956551
 10
-12075.0248711
 20
20.021420879
 10
-11963.2892858
 20
23.5860458551
 10
-11851.5537005
 20
27.1506705738
 10
-11739.8181152
 20
30.7152950251
 10
-11628.08253
 20
34.2799191983
 10
-11516.3469447
 20
37.8445430823
 10
-11404.6113594
 20
41.4091666653
 10
-11292.8757741
 20
44.9737899348
 10
-11181.1401887
 20
48.5384128778
 10
-11069.4046034
 20
52.1030354805
 10
-10957.6690181
 20
55.667657728
 10
-10845.9334328
 20
59.232279605
 10
-10734.1978474
 20
62.796901095
 10
-10622.462262
 20
66.3615221806
 10
-10510.7266767
 20
69.9261428433
 10
-10398.9910913
 20
73.4907630636
 10
-10287.2555059
 20
77.0553828205
 10
-10175.5199205
 20
80.6200020919
 10
-10063.7843351
 20
84.1846208542
 10
-9952.04874967
 20
87.7492390822
 10
-9840.31316424
 20
91.313856749
 10
-9728.57757878
 20
94.878473826
 10
-9616.84199332
 20
98.4430902825
 10
-9505.10640784
 20
102.007706086
 10
-9393.37082234
 20
105.5723212
 10
-9281.63523683
 20
109.136935589
 10
-9169.8996513
 20
112.70154921
 10
-9058.16406575
 20
116.266162021
 10
-8946.42848018
 20
119.830773974
 10
-8834.69289459
 20
123.395385018
 10
-8722.95730898
 20
126.9599951
 10
-8611.22172334
 20
130.524604159
 10
-8499.48613768
 20
134.089212131
 10
-8387.75055199
 20
137.653818946
 10
-8276.01496627
 20
141.218424528
 10
-8164.27938052
 20
144.783028795
 10
-8052.54379474
 20
148.347631656
 10
-7940.80820893
 20
151.912233012
 10
-7829.07262307
 20
155.476832755
 10
-7717.33703718
 20
159.041430766
 10
-7605.60145125
 20
162.606026915
 10
-7493.86586526
 20
166.170621056
 10
-7382.13027923
 20
169.735213029
 10
-7270.39469314
 20
173.299802659
 10
-7158.659107
 20
176.864389747
 10
-7046.92352079
 20
180.428974074
 10
-6935.18793451
 20
183.993555393
 10
-6823.45234815
 20
187.558133429
 10
-6711.71676171
 20
191.122707871
 10
-6599.98117518
 20
194.687278368
 10
-6488.24558855
 20
198.25184452
 10
-6376.51000181
 20
201.816405874
 10
-6264.77441494
 20
205.380961909
 10
-6153.03882794
 20
208.945512027
 10
-6041.30324078
 20
212.510055538
 10
-5929.56765346
 20
216.074591638
 10
-5817.83206594
 20
219.639119389
 10
-5706.0964782
 20
223.203637686
 10
-5594.36089021
 20
226.768145222
 10
-5482.62530193
 20
230.332640437
 10
-5370.88971333
 20
233.897121452
 10
-5259.15412434
 20
237.461585987
 10
-5147.41853491
 20
241.026031249
 10
-5035.68294495
 20
244.590453771
 10
-4923.94735436
 20
248.154849205
 10
-4812.21176301
 20
251.719212018
 10
-4700.47617075
 20
255.283535062
  0
LWPOLYLINE
  5
2aa
330
1F
100
AcDbEntity
  8
main_beam_width
100
AcDbPolyline
 90
10
 70
0
43
0.0
 10
-4700.47617655
 20
255.28386967
 10
-6340.65341533
 20
250.695796434
 10
-7980.83062375
 20
246.097028385
 10
-9621.00780142
 20
241.487425828
 10
-11261.184948
 20
236.866873686
 10
-12901.3620632
 20
232.23528288
 10
-14541.539147
 20
227.592591441
 10
-16181.7161991
 20
222.938765279
 10
-17821.8932196
 20
218.273798617
 10
-19462.0702085
 20
213.597714065
  0
LWPOLYLINE
  5
2ab
330
1F
100
AcDbEntity
  8
main_beam_width
100
AcDbPolyline
 90
10
 70
0
43
0.0
 10
-4700.82312404
 20
281.958771113
 10
-6340.96984095
 20
277.234750062
 10
-7981.11658822
 20
272.521423455
 10
-9621.26336625
 20
267.818930973
 10
-11261.4101754
 20
263.127387686
 10
-12901.5570158
 20
258.446882663
 10
-14541.7038878
 20
253.77747787
 10
-16181.8507913
 20
249.119207391
 10
-17821.9977265
 20
244.472077004
 10
-19462.1446933
 20
239.836064096
  0
LWPOLYLINE
  5
2ac
330
1F
100
AcDbEntity
  8
main_beam_width
100
AcDbPolyline
 90
39
 70
0
43
0.0
 10
26507.1128381
 20
89.1832735931
 10
105454.481259
 20
84.7444220407
 10
184401.84968
 20
80.3616666434
 10
263349.218101
 20
76.0429880265
 10
342296.586522
 20
71.797801468
 10
421243.954943
 20
67.6372477332
 10
500191.323364
 20
63.5745397792
 10
579138.691785
 20
59.6253694998
 10
658086.060207
 20
55.8083728447
 10
737033.428628
 20
52.1456400383
 10
815980.797049
 20
48.6632368572
 10
894928.16547
 20
45.3916689443
 10
973875.533891
 20
42.3661706089
 10
1052822.90231
 20
39.6266338381
 10
1131770.27073
 20
37.2169256419
 10
1210717.63915
 20
35.1833077581
 10
1289665.00757
 20
33.5717344345
 10
1368612.376
 20
32.4240323692
 10
1447559.74442
 20
31.7733806294
 10
1526507.11284
 20
31.6399876637
 10
1605454.48126
 20
32.0281296562
 10
1684401.84968
 20
32.9254914665
 10
1763349.2181
 20
34.3050339886
 10
1842296.58652
 20
36.1287670509
 10
1921243.95494
 20
38.3523066728
 10
2000191.32336
 20
40.9291359889
 10
2079138.69179
 20
43.8139008992
 10
2158086.06021
 20
46.9645448955
 10
2237033.42863
 20
50.343415008
 10
2315980.79705
 20
53.9176100612
 10
2394928.16547
 20
57.6588480406
 10
2473875.53389
 20
61.5430727192
 10
2552822.90231
 20
65.5499501914
 10
2631770.27073
 20
69.6623469767
 10
2710717.63915
 20
73.8658391711
 10
2789665.00757
 20
78.1482751317
 10
2868612.376
 20
82.4993983763
 10
2947559.74442
 20
86.9105289557
 10
3026507.11284
 20
91.374297623
  0
LWPOLYLINE
  5
2ad
330
1F
100
AcDbEntity
  8
main_beam_width
100
AcDbPolyline
 90
39
 70
0
43
0.0
 10
26507.1128381
 20
-121.94473056
 10
105454.481259
 20
-117.505879008
 10
184401.84968
 20
-113.12312361
 10
263349.218101
 20
-108.804444993
 10
342296.586522
 20
-104.559258435
 10
421243.954943
 20
-100.3987047
 10
500191.323364
 20
-96.3359967462
 10
579138.691785
 20
-92.3868264667
 10
658086.060207
 20
-88.5698298117
 10
737033.428628
 20
-84.9070970052
 10
815980.797049
 20
-81.4246938242
 10
894928.16547
 20
-78.1531259112
 10
973875.533891
 20
-75.1276275758
 10
1052822.90231
 20
-72.3880908051
 10
1131770.27073
 20
-69.9783826088
 10
1210717.63915
 20
-67.9447647251
 10
1289665.00757
 20
-66.3331914014
 10
1368612.376
 20
-65.1854893361
 10
1447559.74442
 20
-64.5348375963
 10
1526507.11284
 20
-64.4014446307
 10
1605454.48126
 20
-64.7895866232
 10
1684401.84968
 20
-65.6869484334
 10
1763349.2181
 20
-67.0664909556
 10
1842296.58652
 20
-68.8902240178
 10
1921243.95494
 20
-71.1137636398
 10
2000191.32336
 20
-73.6905929558
 10
2079138.69179
 20
-76.5753578661
 10
2158086.06021
 20
-79.7260018625
 10
2237033.42863
 20
-83.1048719749
 10
2315980.79705
 20
-86.6790670281
 10
2394928.16547
 20
-90.4203050076
 10
2473875.53389
 20
-94.3045296861
 10
2552822.90231
 20
-98.3114071583
 10
2631770.27073
 20
-102.423803944
 10
2710717.63915
 20
-106.627296138
 10
2789665.00757
 20
-110.909732099
 10
2868612.376
 20
-115.260855343
 10
2947559.74442
 20
-119.671985923
 10
3026507.11284
 20
-124.13575459
  0
LWPOLYLINE
  5
2ae
330
1F
100
AcDbEntity
  8
main_beam_width
100
AcDbPolyline
 90
10
 70
0
43
0.0
 10
26507.1128381
 20
-122.282140271
 10
26490.4413906
 20
-122.283069497
 10
26473.7699431
 20
-122.283998725
 10
26457.0984955
 20
-122.284927953
 10
26440.427048
 20
-122.285857181
 10
26423.7556005
 20
-122.286786411
 10
26407.084153
 20
-122.287715641
 10
26390.4127055
 20
-122.288644872
 10
26373.741258
 20
-122.289574103
 10
26357.0698105
 20
-122.290503335
  0
LWPOLYLINE
  5
2af
330
1F
100
AcDbEntity
  8
main_beam_width
100
AcDbPolyline
 90
10
 70
0
43
0.0
 10
26507.1128381
 20
89.5206832896
 10
26490.4516599
 20
89.5216119438
 10
26473.7904817
 20
89.5225405987
 10
26457.1293035
 20
89.5234692543
 10
26440.4681252
 20
89.5243979106
 10
26423.806947
 20
89.5253265676
 10
26407.1457688
 20
89.5262552254
 10
26390.4845906
 20
89.5271838838
 10
26373.8234124
 20
89.5281125429
 10
26357.1622342
 20
89.5290412028
  0
LWPOLYLINE
  5
2b0
330
1F
100
AcDbEntity
  8
main_beam_width
100
AcDbPolyline
 90
19
 70
0
43
0.0
 10
1526507.11284
 20
-64.9716286935
 10
1443173.7795
 20
-65.2520170578
 10
1359840.44617
 20
-66.0836925599
 10
1276507.11284
 20
-67.4397233466
 10
1193173.7795
 20
-69.2798003304
 10
1109840.44617
 20
-71.5555159817
 10
1026507.11284
 20
-74.2154678368
 10
943173.779505
 20
-77.2092703371
 10
859840.446171
 20
-80.490169749
 10
776507.112838
 20
-84.0163991174
 10
693173.779505
 20
-87.7516045619
 10
609840.446171
 20
-91.6646875297
 10
526507.112838
 20
-95.7293362502
 10
443173.779505
 20
-99.9234310179
 10
359840.446171
 20
-104.228433441
 10
276507.112838
 20
-108.628817425
 10
193173.779505
 20
-113.111566832
 10
109840.446171
 20
-117.665746079
 10
26507.1128381
 20
-122.282140271
  0
LWPOLYLINE
  5
2b1
330
1F
100
AcDbEntity
  8
main_beam_width
100
AcDbPolyline
 90
19
 70
0
43
0.0
 10
1526507.11284
 20
32.2101717124
 10
1443173.7795
 20
32.4905600767
 10
1359840.44617
 20
33.3222355788
 10
1276507.11284
 20
34.6782663656
 10
1193173.7795
 20
36.5183433494
 10
1109840.44617
 20
38.7940590007
 10
1026507.11284
 20
41.4540108558
 10
943173.779505
 20
44.4478133561
 10
859840.446171
 20
47.7287127681
 10
776507.112838
 20
51.2549421365
 10
693173.779505
 20
54.990147581
 10
609840.446171
 20
58.9032305488
 10
526507.112838
 20
62.9678792694
 10
443173.779505
 20
67.161974037
 10
359840.446171
 20
71.4669764604
 10
276507.112838
 20
75.867360444
 10
193173.779505
 20
80.3501098516
 10
109840.446171
 20
84.9042890986
 10
26507.1128381
 20
89.5206832898
  0
LWPOLYLINE
  5
2b2
330
1F
100
AcDbEntity
  8
main_beam_width
100
AcDbPolyline
 90
38
 70
0
43
0.0
 10
26507.1128381
 20
89.5206832896
 10
107588.193919
 20
85.0282764798
 10
188669.275
 20
80.5945452274
 10
269750.356081
 20
76.2279173684
 10
350831.437162
 20
71.9383465416
 10
431912.518244
 20
67.7376220211
 10
512993.599325
 20
63.639737158
 10
594074.680406
 20
59.6613197721
 10
675155.761487
 20
55.8221207392
 10
756236.842568
 20
52.1455432697
 10
837317.923649
 20
48.6591712433
 10
918399.00473
 20
45.3952162206
 10
999480.085811
 20
42.390746598
 10
1080561.16689
 20
39.68749223
 10
1161642.24797
 20
37.3309519617
 10
1242723.32905
 20
35.3685131541
 10
1323804.41014
 20
33.8463912371
 10
1404885.49122
 20
32.8054814979
 10
1485966.5723
 20
32.276676922
 10
1567047.65338
 20
32.276676922
 10
1648128.73446
 20
32.8054814979
 10
1729209.81554
 20
33.8463912371
 10
1810290.89662
 20
35.3685131541
 10
1891371.9777
 20
37.3309519617
 10
1972453.05878
 20
39.68749223
 10
2053534.13987
 20
42.390746598
 10
2134615.22095
 20
45.3952162206
 10
2215696.30203
 20
48.6591712433
 10
2296777.38311
 20
52.1455432697
 10
2377858.46419
 20
55.8221207392
 10
2458939.54527
 20
59.6613197721
 10
2540020.62635
 20
63.639737158
 10
2621101.70743
 20
67.7376220211
 10
2702182.78851
 20
71.9383465416
 10
2783263.86959
 20
76.2279173684
 10
2864344.95068
 20
80.5945452274
 10
2945426.03176
 20
85.0282764798
 10
3026507.11284
 20
89.5206832896
  0
LWPOLYLINE
  5
2b3
330
1F
100
AcDbEntity
  8
main_beam_width
100
AcDbPolyline
 90
38
 70
0
43
0.0
 10
26507.1128381
 20
-122.282140271
 10
107588.193919
 20
-117.789733461
 10
188669.275
 20
-113.356002209
 10
269750.356081
 20
-108.98937435
 10
350831.437162
 20
-104.699803523
 10
431912.518244
 20
-100.499079002
 10
512993.599325
 20
-96.4011941391
 10
594074.680406
 20
-92.4227767532
 10
675155.761487
 20
-88.5835777203
 10
756236.842568
 20
-84.9070002508
 10
837317.923649
 20
-81.4206282244
 10
918399.00473
 20
-78.1566732017
 10
999480.085811
 20
-75.1522035791
 10
1080561.16689
 20
-72.4489492111
 10
1161642.24797
 20
-70.0924089428
 10
1242723.32905
 20
-68.1299701352
 10
1323804.41014
 20
-66.6078482182
 10
1404885.49122
 20
-65.566938479
 10
1485966.5723
 20
-65.0381339031
 10
1567047.65338
 20
-65.0381339031
 10
1648128.73446
 20
-65.566938479
 10
1729209.81554
 20
-66.6078482182
 10
1810290.89662
 20
-68.1299701352
 10
1891371.9777
 20
-70.0924089428
 10
1972453.05878
 20
-72.4489492111
 10
2053534.13987
 20
-75.1522035791
 10
2134615.22095
 20
-78.1566732017
 10
2215696.30203
 20
-81.4206282244
 10
2296777.38311
 20
-84.9070002508
 10
2377858.46419
 20
-88.5835777203
 10
2458939.54527
 20
-92.4227767532
 10
2540020.62635
 20
-96.4011941391
 10
2621101.70743
 20
-100.499079002
 10
2702182.78851
 20
-104.699803523
 10
2783263.86959
 20
-108.98937435
 10
2864344.95068
 20
-113.356002209
 10
2945426.03176
 20
-117.789733461
 10
3026507.11284
 20
-122.282140271
  0
LWPOLYLINE
  5
2b4
330
1F
100
AcDbEntity
  8
main_beam_width
100
AcDbPolyline
 90
10
 70
0
43
0.0
 10
108.632621722
 20
108.584196967
 10
111.412147731
 20
98.770621912
 10
114.19167374
 20
88.957046857
 10
116.971199749
 20
79.1434718021
 10
119.750725759
 20
69.3298967472
 10
122.530251768
 20
59.5163216924
 10
125.309777778
 20
49.7027466377
 10
128.089303788
 20
39.8891715829
 10
130.868829798
 20
30.0755965283
 10
133.648355808
 20
20.2620214737
  0
LWPOLYLINE
  5
2b5
330
1F
100
AcDbEntity
  8
main_beam_width
100
AcDbPolyline
 90
10
 70
0
43
0.0
 10
-108.639253034
 20
-108.590825323
 10
-105.875489071
 20
-118.352820098
 10
-103.111725109
 20
-128.114814873
 10
-100.347961146
 20
-137.876809648
 10
-97.584197184
 20
-147.638804423
 10
-94.8204332219
 20
-157.400799198
 10
-92.0566692599
 20
-167.162793973
 10
-89.2929052982
 20
-176.924788748
 10
-86.5291413366
 20
-186.686783523
 10
-83.7653773752
 20
-196.448778299
  0
LWPOLYLINE
  5
2b6
330
1F
100
AcDbEntity
  8
main_beam_width
100
AcDbPolyline
 90
10
 70
0
43
0.0
 10
-20.6553049092
 20
-133.542750802
 10
-30.4312991451
 20
-130.770314637
 10
-40.2072933811
 20
-127.997878472
 10
-49.9832876171
 20
-125.225442307
 10
-59.7592818532
 20
-122.453006143
 10
-69.5352760893
 20
-119.680569978
 10
-79.3112703255
 20
-116.908133814
 10
-89.0872645617
 20
-114.13569765
 10
-98.863258798
 20
-111.363261486
 10
-108.639253034
 20
-108.590825323
  0
LWPOLYLINE
  5
2b7
330
1F
100
AcDbEntity
  8
main_beam_width
100
AcDbPolyline
 90
10
 70
0
43
0.0
 10
197.081418042
 20
83.4899944608
 10
187.253774007
 20
86.278239183
 10
177.426129971
 20
89.0664839053
 10
167.598485935
 20
91.8547286279
 10
157.7708419
 20
94.6429733506
 10
147.943197864
 20
97.4312180735
 10
138.115553829
 20
100.219462797
 10
128.287909793
 20
103.00770752
 10
118.460265758
 20
105.795952243
 10
108.632621722
 20
108.584196967
  0
LWPOLYLINE
  5
2b8
330
1F
100
AcDbEntity
  8
main_beam_width
100
AcDbPolyline
 90
10
 70
0
43
0.0
 10
26357.0698104
 20
-122.290508684
 10
23426.2106449
 20
-123.541312867
 10
20495.3514793
 20
-124.792183689
 10
17564.4923138
 20
-126.043120615
 10
14633.6331483
 20
-127.294123112
 10
11702.7739828
 20
-128.545190656
 10
8771.91481734
 20
-129.796322727
 10
5841.0556519
 20
-131.047518809
 10
2910.19648648
 20
-132.298778393
 10
-20.6626789247
 20
-133.550100976
  0
LWPOLYLINE
  5
2b9
330
1F
100
AcDbEntity
  8
main_beam_width
100
AcDbPolyline
 90
10
 70
0
43
0.0
 10
26357.1622342
 20
89.5290358542
 10
23450.4857689
 20
88.856957404
 10
20543.8093036
 20
88.1849445029
 10
17637.1328383
 20
87.512996627
 10
14730.456373
 20
86.8411132584
 10
11823.7799076
 20
86.1692938842
 10
8917.10344225
 20
85.4975379969
 10
6010.42697685
 20
84.8258450943
 10
3103.75051144
 20
84.1542146794
 10
197.074046007
 20
83.4826462603
  0
LWPOLYLINE
  5
2ba
330
1F
100
AcDbEntity
  8
main_beam_width
100
AcDbPolyline
 90
10
 70
0
43
0.0
 10
133.641115416
 20
20.2548044902
 10
136.306048277
 20
-1725.87023533
 10
138.971003001
 20
-3471.99527513
 10
141.635979484
 20
-5218.12031489
 10
144.300977625
 20
-6964.24535462
 10
146.965997322
 20
-8710.37039432
 10
149.631038477
 20
-10456.495434
 10
152.296100988
 20
-12202.6204736
 10
154.961184756
 20
-13948.7455132
 10
157.626289683
 20
-15694.8705528
  0
LWPOLYLINE
  5
2bb
330
1F
100
AcDbEntity
  8
main_beam_width
100
AcDbPolyline
 90
10
 70
0
43
0.0
 10
-83.7726196898
 20
-196.455997198
 10
-81.4810412973
 20
-1918.2433071
 10
-79.1894841504
 20
-3640.03061704
 10
-76.8979481511
 20
-5361.817927
 10
-74.606433202
 20
-7083.605237
 10
-72.3149392064
 20
-8805.39254703
 10
-70.023466068
 20
-10527.1798571
 10
-67.7320136911
 20
-12248.9671672
 10
-65.4405819808
 20
-13970.7544773
 10
-63.1491708424
 20
-15692.5417874
  0
LWPOLYLINE
  5
2bc
330
1F
100
AcDbEntity
  8
main_beam_width
100
AcDbPolyline
 90
100
 70
0
43
0.0
 10
-63.1529090584
 20
-15692.5417314
 10
-59.6414737642
 20
-15580.3450998
 10
-56.1300385594
 20
-15468.1484682
 10
-52.6186034463
 20
-15355.9518366
 10
-49.1071684276
 20
-15243.755205
 10
-45.595733506
 20
-15131.5585734
 10
-42.084298684
 20
-15019.3619417
 10
-38.5728639647
 20
-14907.1653101
 10
-35.0614293509
 20
-14794.9686785
 10
-31.5499948456
 20
-14682.7720469
 10
-28.0385604522
 20
-14570.5754152
 10
-24.5271261739
 20
-14458.3787836
 10
-21.0156920141
 20
-14346.182152
 10
-17.5042579765
 20
-14233.9855203
 10
-13.9928240647
 20
-14121.7888887
 10
-10.4813902827
 20
-14009.5922571
 10
-6.96995663448
 20
-13897.3956254
 10
-3.45852312426
 20
-13785.1989938
 10
0.0529102435667
 20
-13673.0023621
 10
3.56434346441
 20
-13560.8057305
 10
7.07577653348
 20
-13448.6090988
 10
10.5872094458
 20
-13336.4124671
 10
14.0986421962
 20
-13224.2158355
 10
17.6100747791
 20
-13112.0192038
 10
21.1215071889
 20
-12999.8225721
 10
24.6329394197
 20
-12887.6259404
 10
28.1443714652
 20
-12775.4293088
 10
31.6558033189
 20
-12663.2326771
 10
35.1672349739
 20
-12551.0360454
 10
38.6786664232
 20
-12438.8394137
 10
42.1900976591
 20
-12326.642782
 10
45.7015286738
 20
-12214.4461503
 10
49.2129594591
 20
-12102.2495186
 10
52.7243900062
 20
-11990.0528869
 10
56.2358203061
 20
-11877.8562551
 10
59.7472503491
 20
-11765.6596234
 10
63.258680125
 20
-11653.4629917
 10
66.7701096234
 20
-11541.2663599
 10
70.2815388328
 20
-11429.0697282
 10
73.7929677416
 20
-11316.8730964
 10
77.3043963372
 20
-11204.6764647
 10
80.8158246064
 20
-11092.4798329
 10
84.3272525353
 20
-10980.2832011
 10
87.8386801091
 20
-10868.0865694
 10
91.3501073122
 20
-10755.8899376
 10
94.8615341281
 20
-10643.6933058
 10
98.3729605393
 20
-10531.496674
 10
101.884386527
 20
-10419.3000421
 10
105.395812072
 20
-10307.1034103
 10
108.907237152
 20
-10194.9067785
 10
112.418661746
 20
-10082.7101466
 10
115.93008583
 20
-9970.51351477
 10
119.441509377
 20
-9858.31688289
 10
122.952932362
 20
-9746.12025101
 10
126.464354755
 20
-9633.92361911
 10
129.975776525
 20
-9521.7269872
 10
133.487197638
 20
-9409.53035527
 10
136.99861806
 20
-9297.33372332
 10
140.510037751
 20
-9185.13709136
 10
144.021456672
 20
-9072.94045939
 10
147.532874776
 20
-8960.74382739
 10
151.044292018
 20
-8848.54719537
 10
154.555708344
 20
-8736.35056334
 10
158.0671237
 20
-8624.15393128
 10
161.578538024
 20
-8511.9572992
 10
165.089951252
 20
-8399.76066709
 10
168.601363313
 20
-8287.56403496
 10
172.112774128
 20
-8175.3674028
 10
175.624183614
 20
-8063.17077061
 10
179.135591677
 20
-7950.97413839
 10
182.646998218
 20
-7838.77750613
 10
186.158403125
 20
-7726.58087384
 10
189.669806277
 20
-7614.38424151
 10
193.181207539
 20
-7502.18760913
 10
196.692606763
 20
-7389.99097671
 10
200.204003784
 20
-7277.79434424
 10
203.715398421
 20
-7165.59771172
 10
207.22679047
 20
-7053.40107913
 10
210.738179705
 20
-6941.20444649
 10
214.249565871
 20
-6829.00781377
 10
217.760948683
 20
-6716.81118098
 10
221.272327819
 20
-6604.61454811
 10
224.783702913
 20
-6492.41791514
 10
228.295073552
 20
-6380.22128208
 10
231.806439261
 20
-6268.0246489
 10
235.317799497
 20
-6155.8280156
 10
238.829153636
 20
-6043.63138216
 10
242.340500951
 20
-5931.43474857
 10
245.851840597
 20
-5819.23811481
 10
249.363171586
 20
-5707.04148085
 10
252.874492747
 20
-5594.84484667
 10
256.385802694
 20
-5482.64821224
 10
259.897099763
 20
-5370.45157752
 10
263.408381945
 20
-5258.25494246
 10
266.919646792
 20
-5146.05830701
 10
270.430891285
 20
-5033.8616711
 10
273.942111664
 20
-4921.66503465
 10
277.453303179
 20
-4809.46839755
 10
280.964459749
 20
-4697.27175967
 10
284.475573453
 20
-4585.07512081
  0
LWPOLYLINE
  5
2bd
330
1F
100
AcDbEntity
  8
main_beam_width
100
AcDbPolyline
 90
100
 70
0
43
0.0
 10
157.61831349
 20
-15694.870504
 10
159.162587401
 20
-15582.6535963
 10
160.706861401
 20
-15470.4366886
 10
162.251135493
 20
-15358.2197809
 10
163.795409679
 20
-15246.0028733
 10
165.339683962
 20
-15133.7859656
 10
166.883958345
 20
-15021.5690579
 10
168.428232831
 20
-14909.3521502
 10
169.972507422
 20
-14797.1352425
 10
171.516782122
 20
-14684.9183349
 10
173.061056934
 20
-14572.7014272
 10
174.605331861
 20
-14460.4845195
 10
176.149606906
 20
-14348.2676119
 10
177.693882074
 20
-14236.0507042
 10
179.238157367
 20
-14123.8337965
 10
180.78243279
 20
-14011.6168889
 10
182.326708347
 20
-13899.3999812
 10
183.870984042
 20
-13787.1830736
 10
185.41525988
 20
-13674.9661659
 10
186.959535864
 20
-13562.7492583
 10
188.503812001
 20
-13450.5323506
 10
190.048088294
 20
-13338.315443
 10
191.592364749
 20
-13226.0985354
 10
193.136641371
 20
-13113.8816277
 10
194.680918167
 20
-13001.6647201
 10
196.225195142
 20
-12889.4478125
 10
197.769472302
 20
-12777.2309049
 10
199.313749654
 20
-12665.0139973
 10
200.858027204
 20
-12552.7970896
 10
202.402304961
 20
-12440.580182
 10
203.946582931
 20
-12328.3632744
 10
205.490861122
 20
-12216.1463668
 10
207.035139542
 20
-12103.9294593
 10
208.579418201
 20
-11991.7125517
 10
210.123697107
 20
-11879.4956441
 10
211.66797627
 20
-11767.2787365
 10
213.2122557
 20
-11655.061829
 10
214.756535408
 20
-11542.8449214
 10
216.300815404
 20
-11430.6280138
 10
217.845095702
 20
-11318.4111063
 10
219.389376313
 20
-11206.1941988
 10
220.93365725
 20
-11093.9772912
 10
222.477938527
 20
-10981.7603837
 10
224.02222016
 20
-10869.5434762
 10
225.566502163
 20
-10757.3265687
 10
227.110784554
 20
-10645.1096612
 10
228.655067349
 20
-10532.8927537
 10
230.199350568
 20
-10420.6758462
 10
231.743634231
 20
-10308.4589387
 10
233.287918357
 20
-10196.2420313
 10
234.83220297
 20
-10084.0251238
 10
236.376488094
 20
-9971.80821637
 10
237.920773753
 20
-9859.59130894
 10
239.465059976
 20
-9747.37440153
 10
241.009346791
 20
-9635.15749413
 10
242.553634228
 20
-9522.94058674
 10
244.097922322
 20
-9410.72367937
 10
245.642211109
 20
-9298.50677201
 10
247.186500625
 20
-9186.28986467
 10
248.730790913
 20
-9074.07295735
 10
250.275082016
 20
-8961.85605005
 10
251.819373983
 20
-8849.63914276
 10
253.363666866
 20
-8737.4222355
 10
254.907960719
 20
-8625.20532826
 10
256.452255603
 20
-8512.98842104
 10
257.996551584
 20
-8400.77151384
 10
259.540848733
 20
-8288.55460668
 10
261.085147127
 20
-8176.33769954
 10
262.629446852
 20
-8064.12079243
 10
264.173747998
 20
-7951.90388535
 10
265.718050668
 20
-7839.6869783
 10
267.262354971
 20
-7727.4700713
 10
268.80666103
 20
-7615.25316433
 10
270.35096898
 20
-7503.03625741
 10
271.895278968
 20
-7390.81935053
 10
273.439591158
 20
-7278.6024437
 10
274.983905734
 20
-7166.38553692
 10
276.528222898
 20
-7054.16863021
 10
278.072542876
 20
-6941.95172355
 10
279.616865924
 20
-6829.73481697
 10
281.161192327
 20
-6717.51791046
 10
282.705522406
 20
-6605.30100403
 10
284.249856528
 20
-6493.0840977
 10
285.794195106
 20
-6380.86719146
 10
287.338538614
 20
-6268.65028534
 10
288.882887596
 20
-6156.43337934
 10
290.427242677
 20
-6044.21647348
 10
291.971604582
 20
-5931.99956777
 10
293.515974157
 20
-5819.78266223
 10
295.060352392
 20
-5707.56575689
 10
296.604740454
 20
-5595.34885177
 10
298.149139734
 20
-5483.1319469
 10
299.693551893
 20
-5370.91504232
 10
301.237978941
 20
-5258.69813808
 10
302.782423327
 20
-5146.48123423
 10
304.326888069
 20
-5034.26433084
 10
305.871376929
 20
-4922.04742799
 10
307.415894655
 20
-4809.83052579
 10
308.960447332
 20
-4697.61362438
 10
310.505042879
 20
-4585.39672393
  0
LWPOLYLINE
  5
2be
330
1F
100
AcDbEntity
  8
main_beam_width
100
AcDbPolyline
 90
10
 70
0
43
0.0
 10
310.50586926
 20
-4585.39673054
 10
306.857734619
 20
-6223.294854
 10
303.221085288
 20
-7861.19300256
 10
299.596076169
 20
-9499.09117654
 10
295.982832936
 20
-11136.9893762
 10
292.381450361
 20
-12774.8876019
 10
288.79199102
 20
-14412.7858535
 10
285.214484434
 20
-16050.6841313
 10
281.64892665
 20
-17688.5824352
 10
278.095280305
 20
-19326.4807651
  0
LWPOLYLINE
  5
2bf
330
1F
100
AcDbEntity
  8
main_beam_width
100
AcDbPolyline
 90
10
 70
0
43
0.0
 10
284.475900451
 20
-4585.07512628
 10
280.966142534
 20
-6223.00296622
 10
277.444898917
 20
-7860.93078106
 10
273.912014689
 20
-9498.85857046
 10
270.367364163
 20
-11136.7863342
 10
266.810852561
 20
-12774.7140719
 10
263.2424173
 20
-14412.6417837
 10
259.662028856
 20
-16050.5694693
 10
256.069691179
 20
-17688.4971288
 10
252.465441635
 20
-19326.4247622
  0
LWPOLYLINE
  5
2c0
330
1F
100
AcDbEntity
  8
main_beam_width
100
AcDbPolyline
 90
10
 70
0
43
0.0
 10
-108.646550614
 20
-108.59811965
 10
-1847.94061221
 20
-107.420515024
 10
-3587.23467382
 20
-106.24293219
 10
-5326.52873545
 20
-105.065371047
 10
-7065.82279709
 20
-103.887831493
 10
-8805.11685876
 20
-102.710313427
 10
-10544.4109204
 20
-101.53281675
 10
-12283.7049821
 20
-100.355341362
 10
-14022.9990438
 20
-99.1778871643
 10
-15762.2931056
 20
-98.0004540587
  0
LWPOLYLINE
  5
2c1
330
1F
100
AcDbEntity
  8
main_beam_width
100
AcDbPolyline
 90
10
 70
0
43
0.0
 10
108.625326091
 20
108.576904587
 10
-1655.08435499
 20
110.116024069
 10
-3418.79403605
 20
111.655165971
 10
-5182.50371709
 20
113.194330187
 10
-6946.21339812
 20
114.733516611
 10
-8709.92307913
 20
116.272725138
 10
-10473.6327601
 20
117.811955664
 10
-12237.3424411
 20
119.351208085
 10
-14001.0521221
 20
120.890482298
 10
-15764.761803
 20
122.429778201
  0
LWPOLYLINE
  5
2c2
330
1F
100
AcDbEntity
  8
main_beam_width
100
AcDbPolyline
 90
100
 70
0
43
0.0
 10
-15764.7617492
 20
122.421831489
 10
-15653.0047975
 20
124.033859639
 10
-15541.2478459
 20
125.645887878
 10
-15429.4908943
 20
127.257916208
 10
-15317.7339427
 20
128.869944632
 10
-15205.9769911
 20
130.481973153
 10
-15094.2200395
 20
132.094001773
 10
-14982.4630879
 20
133.706030496
 10
-14870.7061363
 20
135.318059323
 10
-14758.9491847
 20
136.930088259
 10
-14647.1922332
 20
138.542117306
 10
-14535.4352816
 20
140.154146468
 10
-14423.67833
 20
141.766175747
 10
-14311.9213784
 20
143.378205148
 10
-14200.1644268
 20
144.990234675
 10
-14088.4074752
 20
146.60226433
 10
-13976.6505237
 20
148.214294118
 10
-13864.8935721
 20
149.826324044
 10
-13753.1366205
 20
151.438354112
 10
-13641.379669
 20
153.050384325
 10
-13529.6227174
 20
154.66241469
 10
-13417.8657659
 20
156.27444521
 10
-13306.1088143
 20
157.886475891
 10
-13194.3518628
 20
159.498506738
 10
-13082.5949112
 20
161.110537758
 10
-12970.8379597
 20
162.722568955
 10
-12859.0810081
 20
164.334600337
 10
-12747.3240566
 20
165.946631909
 10
-12635.5671051
 20
167.558663678
 10
-12523.8101536
 20
169.170695651
 10
-12412.053202
 20
170.782727836
 10
-12300.2962505
 20
172.39476024
 10
-12188.539299
 20
174.006792873
 10
-12076.7823475
 20
175.618825741
 10
-11965.025396
 20
177.230858854
 10
-11853.2684445
 20
178.842892222
 10
-11741.5114931
 20
180.454925855
 10
-11629.7545416
 20
182.066959763
 10
-11517.9975901
 20
183.678993957
 10
-11406.2406386
 20
185.291028449
 10
-11294.4836872
 20
186.903063251
 10
-11182.7267357
 20
188.515098376
 10
-11070.9697843
 20
190.127133837
 10
-10959.2128329
 20
191.73916965
 10
-10847.4558814
 20
193.35120583
 10
-10735.69893
 20
194.963242392
 10
-10623.9419786
 20
196.575279355
 10
-10512.1850272
 20
198.187316736
 10
-10400.4280758
 20
199.799354554
 10
-10288.6711245
 20
201.411392832
 10
-10176.9141731
 20
203.023431589
 10
-10065.1572217
 20
204.63547085
 10
-9953.4002704
 20
206.247510639
 10
-9841.64331907
 20
207.859550984
 10
-9729.88636776
 20
209.471591912
 10
-9618.12941646
 20
211.083633454
 10
-9506.37246517
 20
212.695675643
 10
-9394.61551391
 20
214.307718512
 10
-9282.85856265
 20
215.9197621
 10
-9171.10161142
 20
217.531806446
 10
-9059.3446602
 20
219.143851595
 10
-8947.587709
 20
220.755897591
 10
-8835.83075783
 20
222.367944487
 10
-8724.07380667
 20
223.979992335
 10
-8612.31685554
 20
225.592041194
 10
-8500.55990444
 20
227.204091129
 10
-8388.80295336
 20
228.816142208
 10
-8277.04600231
 20
230.428194506
 10
-8165.28905129
 20
232.040248105
 10
-8053.5321003
 20
233.652303095
 10
-7941.77514935
 20
235.264359573
 10
-7830.01819843
 20
236.876417646
 10
-7718.26124755
 20
238.488477432
 10
-7606.50429672
 20
240.10053906
 10
-7494.74734593
 20
241.712602674
 10
-7382.99039519
 20
243.32466843
 10
-7271.2334445
 20
244.936736505
 10
-7159.47649388
 20
246.548807093
 10
-7047.71954331
 20
248.160880411
 10
-6935.96259282
 20
249.772956703
 10
-6824.2056424
 20
251.385036241
 10
-6712.44869206
 20
252.997119333
 10
-6600.69174182
 20
254.609206326
 10
-6488.93479167
 20
256.221297613
 10
-6377.17784163
 20
257.833393645
 10
-6265.42089172
 20
259.445494934
 10
-6153.66394194
 20
261.057602073
 10
-6041.90699231
 20
262.669715742
 10
-5930.15004285
 20
264.281836736
 10
-5818.39309358
 20
265.893965982
 10
-5706.63614453
 20
267.506104571
 10
-5594.87919573
 20
269.118253794
 10
-5483.1222472
 20
270.730415193
 10
-5371.36529901
 20
272.342590622
 10
-5259.60835119
 20
273.954782331
 10
-5147.85140381
 20
275.566993081
 10
-5036.09445695
 20
277.179226292
 10
-4924.33751071
 20
278.791486255
 10
-4812.58056522
 20
280.403778429
 10
-4700.82362064
 20
282.016109869
  0
LWPOLYLINE
  5
2c3
330
1F
100
AcDbEntity
  8
main_beam_width
100
AcDbPolyline
 90
100
 70
0
43
0.0
 10
-15762.2930473
 20
-98.0041828608
 10
-15650.5575139
 20
-94.436172537
 10
-15538.8219805
 20
-90.8681623021
 10
-15427.0864471
 20
-87.3001521588
 10
-15315.3509137
 20
-83.7321421095
 10
-15203.6153804
 20
-80.1641321567
 10
-15091.879847
 20
-76.5961223033
 10
-14980.1443136
 20
-73.0281125521
 10
-14868.4087801
 20
-69.4601029059
 10
-14756.6732467
 20
-65.8920933678
 10
-14644.9377133
 20
-62.3240839411
 10
-14533.2021799
 20
-58.7560746288
 10
-14421.4666465
 20
-55.1880654346
 10
-14309.7311131
 20
-51.6200563619
 10
-14197.9955797
 20
-48.0520474143
 10
-14086.2600463
 20
-44.4840385959
 10
-13974.5245128
 20
-40.9160299105
 10
-13862.7889794
 20
-37.3480213624
 10
-13751.053446
 20
-33.7800129558
 10
-13639.3179125
 20
-30.2120046954
 10
-13527.5823791
 20
-26.6439965858
 10
-13415.8468457
 20
-23.0759886319
 10
-13304.1113122
 20
-19.5079808391
 10
-13192.3757788
 20
-15.9399732125
 10
-13080.6402453
 20
-12.3719657579
 10
-12968.9047118
 20
-8.8039584811
 10
-12857.1691784
 20
-5.23595138829
 10
-12745.4336449
 20
-1.66794448591
 10
-12633.6981114
 20
1.90006221932
 10
-12521.962578
 20
5.46806872031
 10
-12410.2270445
 20
9.03607500966
 10
-12298.491511
 20
12.6040810796
 10
-12186.7559775
 20
16.172086922
 10
-12075.020444
 20
19.7400925282
 10
-11963.2849105
 20
23.3080978893
 10
-11851.549377
 20
26.8761029957
 10
-11739.8138435
 20
30.4441078376
 10
-11628.07831
 20
34.0121124045
 10
-11516.3427764
 20
37.5801166853
 10
-11404.6072429
 20
41.1481206683
 10
-11292.8717094
 20
44.7161243413
 10
-11181.1361758
 20
48.2841276913
 10
-11069.4006423
 20
51.8521307045
 10
-10957.6651087
 20
55.4201333666
 10
-10845.9295751
 20
58.9881356621
 10
-10734.1940415
 20
62.5561375748
 10
-10622.4585079
 20
66.1241390876
 10
-10510.7229743
 20
69.692140182
 10
-10398.9874407
 20
73.2601408388
 10
-10287.2519071
 20
76.8281410373
 10
-10175.5163735
 20
80.3961407556
 10
-10063.7808398
 20
83.9641399703
 10
-9952.04530617
 20
87.5321386566
 10
-9840.3097725
 20
91.1001367878
 10
-9728.57423882
 20
94.6681343357
 10
-9616.83870512
 20
98.2361312699
 10
-9505.10317141
 20
101.804127558
 10
-9393.36763768
 20
105.372123165
 10
-9281.63210393
 20
108.940118053
 10
-9169.89657017
 20
112.508112184
 10
-9058.16103639
 20
116.076105512
 10
-8946.42550259
 20
119.644097992
 10
-8834.68996877
 20
123.212089574
 10
-8722.95443492
 20
126.780080204
 10
-8611.21890106
 20
130.348069822
 10
-8499.48336716
 20
133.916058365
 10
-8387.74783324
 20
137.484045764
 10
-8276.0122993
 20
141.052031944
 10
-8164.27676532
 20
144.620016823
 10
-8052.54123131
 20
148.188000312
 10
-7940.80569727
 20
151.755982313
 10
-7829.07016319
 20
155.323962719
 10
-7717.33462906
 20
158.891941412
 10
-7605.5990949
 20
162.459918264
 10
-7493.86356069
 20
166.027893131
 10
-7382.12802643
 20
169.595865855
 10
-7270.39249212
 20
173.163836261
 10
-7158.65695775
 20
176.731804154
 10
-7046.92142332
 20
180.299769318
 10
-6935.18588881
 20
183.867731508
 10
-6823.45035423
 20
187.435690453
 10
-6711.71481957
 20
191.003645845
 10
-6599.97928482
 20
194.571597336
 10
-6488.24374997
 20
198.139544533
 10
-6376.50821501
 20
201.707486987
 10
-6264.77267993
 20
205.275424185
 10
-6153.03714471
 20
208.843355534
 10
-6041.30160934
 20
212.411280353
 10
-5929.5660738
 20
215.979197848
 10
-5817.83053807
 20
219.547107093
 10
-5706.09500213
 20
223.115006997
 10
-5594.35946593
 20
226.682896267
 10
-5482.62392946
 20
230.250773364
 10
-5370.88839266
 20
233.818636433
 10
-5259.15285548
 20
237.386483224
 10
-5147.41731786
 20
240.954310976
 10
-5035.68177972
 20
244.522116271
 10
-4923.94624096
 20
248.089894817
 10
-4812.21070146
 20
251.657641155
 10
-4700.47516104
 20
255.225348233
  0
LWPOLYLINE
  5
2c4
330
1F
100
AcDbEntity
  8
main_beam_width
100
AcDbPolyline
 90
10
 70
0
43
0.0
 10
-4700.47516689
 20
255.225685103
 10
-6340.65246453
 20
250.625292515
 10
-7980.82973229
 20
246.014373829
 10
-9621.00696986
 20
241.392821472
 10
-11261.184177
 20
236.760552203
 10
-12901.3613536
 20
232.117508103
 10
-14541.5384995
 20
227.463657272
 10
-16181.7156147
 20
222.79899422
 10
-17821.8926992
 20
218.12353993
 10
-19462.0697533
 20
213.437341607
  0
LWPOLYLINE
  5
2c5
330
1F
100
AcDbEntity
  8
main_beam_width
100
AcDbPolyline
 90
10
 70
0
43
0.0
 10
-4700.82362799
 20
282.016959119
 10
-6340.97034223
 20
277.305257022
 10
-7981.11708635
 20
272.604080653
 10
-9621.26386066
 20
267.913537575
 10
-11261.4106654
 20
263.233711021
 10
-12901.5575007
 20
258.564658905
 10
-14541.7043667
 20
253.906413122
 10
-16181.8512634
 20
249.258979161
 10
-17821.9981907
 20
244.622336038
 10
-19462.1451485
 20
239.996436551
  0
LWPOLYLINE
  5
2c6
330
1F
100
AcDbEntity
  8
main_beam_width
100
AcDbPolyline
 90
10
 70
0
43
0.0
 10
98.3108547069
 20
23221.9757285
 10
98.3117839335
 20
23205.304281
 10
98.3127131607
 20
23188.6328335
 10
98.3136423887
 20
23171.9613859
 10
98.3145716174
 20
23155.2899384
 10
98.3155008468
 20
23138.6184909
 10
98.316430077
 20
23121.9470434
 10
98.3173593078
 20
23105.2755959
 10
98.3182885393
 20
23088.6041484
 10
98.3192177715
 20
23071.9327008
  0
LWPOLYLINE
  5
2c7
330
1F
100
AcDbEntity
  8
main_beam_width
100
AcDbPolyline
 90
10
 70
0
43
0.0
 10
-113.491968853
 20
23221.9757285
 10
-113.492897508
 20
23205.3145503
 10
-113.493826163
 20
23188.6533721
 10
-113.494754818
 20
23171.9921938
 10
-113.495683474
 20
23155.3310156
 10
-113.496612131
 20
23138.6698374
 10
-113.497540789
 20
23122.0086592
 10
-113.498469448
 20
23105.347481
 10
-113.499398107
 20
23088.6863028
 10
-113.500326767
 20
23072.0251246
  0
LWPOLYLINE
  5
2c8
330
1F
100
AcDbEntity
  8
main_beam_width
100
AcDbPolyline
 90
19
 70
0
43
0.0
 10
41.0003431298
 20
1523221.97573
 10
41.280731494
 20
1439888.6424
 10
42.1124069961
 20
1356555.30906
 10
43.4684377828
 20
1273221.97573
 10
45.3085147666
 20
1189888.6424
 10
47.584230418
 20
1106555.30906
 10
50.244182273
 20
1023221.97573
 10
53.2379847733
 20
939888.642395
 10
56.5188841852
 20
856555.309062
 10
60.0451135536
 20
773221.975728
 10
63.7803189981
 20
689888.642395
 10
67.6934019659
 20
606555.309062
 10
71.7580506864
 20
523221.975728
 10
75.9521454541
 20
439888.642395
 10
80.2571478774
 20
356555.309062
 10
84.657531861
 20
273221.975728
 10
89.1402812685
 20
189888.642395
 10
93.6944605155
 20
106555.309062
 10
98.3108547067
 20
23221.9757285
  0
LWPOLYLINE
  5
2c9
330
1F
100
AcDbEntity
  8
main_beam_width
100
AcDbPolyline
 90
19
 70
0
43
0.0
 10
-56.1814572761
 20
1523221.97573
 10
-56.4618456404
 20
1439888.6424
 10
-57.2935211426
 20
1356555.30906
 10
-58.6495519293
 20
1273221.97573
 10
-60.4896289131
 20
1189888.6424
 10
-62.7653445645
 20
1106555.30906
 10
-65.4252964196
 20
1023221.97573
 10
-68.4190989199
 20
939888.642395
 10
-71.6999983319
 20
856555.309062
 10
-75.2262277003
 20
773221.975728
 10
-78.9614331448
 20
689888.642395
 10
-82.8745161126
 20
606555.309062
 10
-86.9391648332
 20
523221.975728
 10
-91.1332596008
 20
439888.642395
 10
-95.4382620243
 20
356555.309062
 10
-99.8386460078
 20
273221.975728
 10
-104.321395415
 20
189888.642395
 10
-108.875574662
 20
106555.309062
 10
-113.491968854
 20
23221.9757285
  0
LWPOLYLINE
  5
2ca
330
1F
100
AcDbEntity
  8
main_beam_width
100
AcDbPolyline
 90
38
 70
0
43
0.0
 10
-113.491968853
 20
23221.9757285
 10
-108.999562044
 20
104303.05681
 10
-104.565830791
 20
185384.137891
 10
-100.199202932
 20
266465.218972
 10
-95.9096321054
 20
347546.300053
 10
-91.7089075849
 20
428627.381134
 10
-87.6110227218
 20
509708.462215
 10
-83.6326053359
 20
590789.543296
 10
-79.793406303
 20
671870.624377
 10
-76.1168288335
 20
752951.705458
 10
-72.630456807
 20
834032.786539
 10
-69.3665017844
 20
915113.86762
 10
-66.3620321618
 20
996194.948701
 10
-63.6587777938
 20
1077276.02978
 10
-61.3022375255
 20
1158357.11086
 10
-59.3397987178
 20
1239438.19194
 10
-57.8176768009
 20
1320519.27303
 10
-56.7767670617
 20
1401600.35411
 10
-56.2479624857
 20
1482681.43519
 10
-56.2479624857
 20
1563762.51627
 10
-56.7767670617
 20
1644843.59735
 10
-57.8176768008
 20
1725924.67843
 10
-59.3397987178
 20
1807005.75951
 10
-61.3022375254
 20
1888086.84059
 10
-63.6587777937
 20
1969167.92167
 10
-66.3620321618
 20
2050249.00276
 10
-69.3665017843
 20
2131330.08384
 10
-72.630456807
 20
2212411.16492
 10
-76.1168288334
 20
2293492.246
 10
-79.7934063029
 20
2374573.32708
 10
-83.6326053357
 20
2455654.40816
 10
-87.6110227217
 20
2536735.48924
 10
-91.7089075847
 20
2617816.57032
 10
-95.9096321053
 20
2698897.6514
 10
-100.199202932
 20
2779978.73249
 10
-104.565830791
 20
2861059.81357
 10
-108.999562043
 20
2942140.89465
 10
-113.491968853
 20
3023221.97573
  0
LWPOLYLINE
  5
2cb
330
1F
100
AcDbEntity
  8
main_beam_width
100
AcDbPolyline
 90
38
 70
0
43
0.0
 10
98.3108547069
 20
23221.9757285
 10
93.8184478971
 20
104303.05681
 10
89.3847166447
 20
185384.137891
 10
85.0180887857
 20
266465.218972
 10
80.7285179589
 20
347546.300053
 10
76.5277934384
 20
428627.381134
 10
72.4299085753
 20
509708.462215
 10
68.4514911894
 20
590789.543296
 10
64.6122921565
 20
671870.624377
 10
60.935714687
 20
752951.705458
 10
57.4493426606
 20
834032.786539
 10
54.185387638
 20
915113.86762
 10
51.1809180154
 20
996194.948701
 10
48.4776636474
 20
1077276.02978
 10
46.1211233791
 20
1158357.11086
 10
44.1586845714
 20
1239438.19194
 10
42.6365626544
 20
1320519.27303
 10
41.5956529153
 20
1401600.35411
 10
41.0668483393
 20
1482681.43519
 10
41.0668483393
 20
1563762.51627
 10
41.5956529153
 20
1644843.59735
 10
42.6365626545
 20
1725924.67843
 10
44.1586845715
 20
1807005.75951
 10
46.1211233791
 20
1888086.84059
 10
48.4776636474
 20
1969167.92167
 10
51.1809180154
 20
2050249.00276
 10
54.185387638
 20
2131330.08384
 10
57.4493426607
 20
2212411.16492
 10
60.9357146871
 20
2293492.246
 10
64.6122921566
 20
2374573.32708
 10
68.4514911895
 20
2455654.40816
 10
72.4299085754
 20
2536735.48924
 10
76.5277934385
 20
2617816.57032
 10
80.728517959
 20
2698897.6514
 10
85.0180887859
 20
2779978.73249
 10
89.3847166449
 20
2861059.81357
 10
93.8184478973
 20
2942140.89465
 10
98.3108547071
 20
3023221.97573
  0
LWPOLYLINE
  5
2cc
330
1F
100
AcDbEntity
  8
main_beam_width
100
AcDbPolyline
 90
10
 70
0
43
0.0
 10
108.128549978
 20
108.080349921
 10
110.908042174
 20
98.2668972787
 10
113.687534371
 20
88.4534446368
 10
116.467026567
 20
78.639991995
 10
119.246518764
 20
68.8265393532
 10
122.026010961
 20
59.0130867115
 10
124.805503158
 20
49.1996340698
 10
127.584995356
 20
39.3861814282
 10
130.364487553
 20
29.5727287866
 10
133.143979751
 20
19.7592761451
  0
LWPOLYLINE
  5
2cd
330
1F
100
AcDbEntity
  8
main_beam_width
100
AcDbPolyline
 90
10
 70
0
43
0.0
 10
-108.135160275
 20
-108.086957271
 10
-105.371362506
 20
-117.849074472
 10
-102.607564737
 20
-127.611191672
 10
-99.8437669681
 20
-137.373308873
 10
-97.0799691996
 20
-147.135426074
 10
-94.3161714313
 20
-156.897543275
 10
-91.5523736631
 20
-166.659660476
 10
-88.7885758952
 20
-176.421777677
 10
-86.0247781274
 20
-186.183894878
 10
-83.2609803598
 20
-195.946012079
  0
LWPOLYLINE
  5
2ce
330
1F
100
AcDbEntity
  8
main_beam_width
100
AcDbPolyline
 90
10
 70
0
43
0.0
 10
98.3192231201
 20
23071.9327008
 10
99.4081412957
 20
20520.392743
 10
100.497110031
 20
17968.8527851
 10
101.58612897
 20
15417.3128273
 10
102.675197763
 20
12865.7728695
 10
103.76431606
 20
10314.2329117
 10
104.853483517
 20
7762.69295388
 10
105.94269979
 20
5211.15299611
 10
107.031964542
 20
2659.61303836
 10
108.121277437
 20
108.073080621
  0
LWPOLYLINE
  5
2cf
330
1F
100
AcDbEntity
  8
main_beam_width
100
AcDbPolyline
 90
10
 70
0
43
0.0
 10
-113.500321418
 20
23072.0251246
 10
-112.904797986
 20
20496.4563076
 10
-112.309326068
 20
17920.8874907
 10
-111.713905297
 20
15345.3186737
 10
-111.118535312
 20
12769.7498567
 10
-110.523215756
 20
10194.1810397
 10
-109.927946273
 20
7618.61222266
 10
-109.332726511
 20
5043.04340562
 10
-108.737556122
 20
2467.47458856
 10
-108.142434761
 20
-108.094228514
  0
LWPOLYLINE
  5
2d0
330
1F
100
AcDbEntity
  8
main_beam_width
100
AcDbPolyline
 90
10
 70
0
43
0.0
 10
-108.142434761
 20
-108.094228514
 10
-1847.49338006
 20
-106.91683766
 10
-3586.84432537
 20
-105.739468905
 10
-5326.1952707
 20
-104.562122146
 10
-7065.54621605
 20
-103.384797278
 10
-8804.89716141
 20
-102.2074942
 10
-10544.2481068
 20
-101.030212809
 10
-12283.5990522
 20
-99.8529530039
 10
-14022.9499976
 20
-98.675714684
 10
-15762.300943
 20
-97.498497749
  0
LWPOLYLINE
  5
2d1
330
1F
100
AcDbEntity
  8
main_beam_width
100
AcDbPolyline
 90
10
 70
0
43
0.0
 10
108.121277437
 20
108.073080621
 10
-1655.53201979
 20
109.612406686
 10
-3419.185317
 20
111.151755483
 10
-5182.8386142
 20
112.691126904
 10
-6946.49191138
 20
114.230520843
 10
-8710.14520853
 20
115.76993719
 10
-10473.7985057
 20
117.309375842
 10
-12237.4518028
 20
118.848836691
 10
-14001.1050999
 20
120.388319632
 10
-15764.758397
 20
121.927824561
  0
LWPOLYLINE
  5
2d2
330
1F
100
AcDbEntity
  8
main_beam_width
100
AcDbPolyline
 90
100
 70
0
43
0.0
 10
-15764.7583436
 20
121.919959868
 10
-15653.0014216
 20
123.536507644
 10
-15541.2444996
 20
125.153055511
 10
-15429.4875776
 20
126.76960347
 10
-15317.7306557
 20
128.386151524
 10
-15205.9737337
 20
130.002699676
 10
-15094.2168117
 20
131.619247929
 10
-14982.4598897
 20
133.235796286
 10
-14870.7029678
 20
134.852344749
 10
-14758.9460458
 20
136.468893322
 10
-14647.1891239
 20
138.085442007
 10
-14535.4322019
 20
139.701990809
 10
-14423.67528
 20
141.318539731
 10
-14311.918358
 20
142.935088775
 10
-14200.1614361
 20
144.551637947
 10
-14088.4045141
 20
146.168187249
 10
-13976.6475922
 20
147.784736686
 10
-13864.8906702
 20
149.401286263
 10
-13753.1337483
 20
151.017835983
 10
-13641.3768264
 20
152.634385851
 10
-13529.6199045
 20
154.250935872
 10
-13417.8629825
 20
155.867486051
 10
-13306.1060606
 20
157.484036394
 10
-13194.3491387
 20
159.100586905
 10
-13082.5922168
 20
160.71713759
 10
-12970.8352949
 20
162.333688456
 10
-12859.078373
 20
163.950239508
 10
-12747.3214511
 20
165.566790753
 10
-12635.5645292
 20
167.183342198
 10
-12523.8076073
 20
168.79989385
 10
-12412.0506854
 20
170.416445717
 10
-12300.2937635
 20
172.032997806
 10
-12188.5368417
 20
173.649550126
 10
-12076.7799198
 20
175.266102686
 10
-11965.0229979
 20
176.882655494
 10
-11853.2660761
 20
178.49920856
 10
-11741.5091542
 20
180.115761894
 10
-11629.7522324
 20
181.732315507
 10
-11517.9953105
 20
183.34886941
 10
-11406.2383887
 20
184.965423616
 10
-11294.4814669
 20
186.581978135
 10
-11182.7245451
 20
188.198532982
 10
-11070.9676233
 20
189.81508817
 10
-10959.2107015
 20
191.431643715
 10
-10847.4537797
 20
193.048199631
 10
-10735.6968579
 20
194.664755935
 10
-10623.9399361
 20
196.281312645
 10
-10512.1830144
 20
197.897869778
 10
-10400.4260926
 20
199.514427356
 10
-10288.6691709
 20
201.130985398
 10
-10176.9122491
 20
202.747543927
 10
-10065.1553274
 20
204.364102966
 10
-9953.39840573
 20
205.980662541
 10
-9841.64148403
 20
207.597222679
 10
-9729.88456235
 20
209.213783409
 10
-9618.12764069
 20
210.83034476
 10
-9506.37071904
 20
212.446906767
 10
-9394.61379741
 20
214.063469464
 10
-9282.85687579
 20
215.680032889
 10
-9171.09995419
 20
217.296597083
 10
-9059.34303262
 20
218.91316209
 10
-8947.58611106
 20
220.529727956
 10
-8835.82918952
 20
222.146294734
 10
-8724.072268
 20
223.762862477
 10
-8612.31534651
 20
225.379431245
 10
-8500.55842504
 20
226.996001103
 10
-8388.8015036
 20
228.61257212
 10
-8277.04458219
 20
230.229144373
 10
-8165.28766081
 20
231.845717945
 10
-8053.53073946
 20
233.462292926
 10
-7941.77381815
 20
235.078869416
 10
-7830.01689687
 20
236.695447522
 10
-7718.25997564
 20
238.312027364
 10
-7606.50305445
 20
239.928609073
 10
-7494.7461333
 20
241.545192793
 10
-7382.98921221
 20
243.161778686
 10
-7271.23229116
 20
244.778366927
 10
-7159.47537018
 20
246.394957716
 10
-7047.71844927
 20
248.011551271
 10
-6935.96152842
 20
249.628147839
 10
-6824.20460765
 20
251.244747697
 10
-6712.44768696
 20
252.861351156
 10
-6600.69076636
 20
254.477958567
 10
-6488.93384587
 20
256.094570331
 10
-6377.17692548
 20
257.7111869
 10
-6265.42000522
 20
259.327808797
 10
-6153.6630851
 20
260.94443662
 10
-6041.90616513
 20
262.561071059
 10
-5930.14924533
 20
264.177712919
 10
-5818.39232573
 20
265.794363139
 10
-5706.63540634
 20
267.411022823
 10
-5594.87848721
 20
269.027693279
 10
-5483.12156836
 20
270.644376067
 10
-5371.36464984
 20
272.261073067
 10
-5259.6077317
 20
273.877786555
 10
-5147.85081401
 20
275.494519327
 10
-5036.09389684
 20
277.111274843
 10
-4924.33698031
 20
278.728057449
 10
-4812.58006453
 20
280.344872669
 10
-4700.82314967
 20
281.96172764
  0
LWPOLYLINE
  5
2d3
330
1F
100
AcDbEntity
  8
main_beam_width
100
AcDbPolyline
 90
100
 70
0
43
0.0
 10
-15762.3008852
 20
-97.5022024705
 10
-15650.5652822
 20
-93.9387127737
 10
-15538.8296792
 20
-90.3752231671
 10
-15427.0940762
 20
-86.8117336533
 10
-15315.3584732
 20
-83.2482442347
 10
-15203.6228701
 20
-79.6847549141
 10
-15091.8872671
 20
-76.1212656942
 10
-14980.1516641
 20
-72.5577765779
 10
-14868.4160611
 20
-68.994287568
 10
-14756.680458
 20
-65.4307986678
 10
-14644.944855
 20
-61.8673098804
 10
-14533.209252
 20
-58.3038212092
 10
-14421.4736489
 20
-54.7403326575
 10
-14309.7380459
 20
-51.176844229
 10
-14198.0024428
 20
-47.6133559275
 10
-14086.2668398
 20
-44.0498677568
 10
-13974.5312367
 20
-40.4863797209
 10
-13862.7956337
 20
-36.9228918243
 10
-13751.0600306
 20
-33.3594040711
 10
-13639.3244276
 20
-29.7959164661
 10
-13527.5888245
 20
-26.232429014
 10
-13415.8532214
 20
-22.6689417198
 10
-13304.1176183
 20
-19.1054545888
 10
-13192.3820153
 20
-15.5419676264
 10
-13080.6464122
 20
-11.9784808382
 10
-12968.9108091
 20
-8.41499423038
 10
-12857.175206
 20
-4.85150780903
 10
-12745.4396029
 20
-1.28802158071
 10
-12633.7039998
 20
2.27546444773
 10
-12521.9683967
 20
5.83895026913
 10
-12410.2327936
 20
9.40243587599
 10
-12298.4971905
 20
12.9659212604
 10
-12186.7615874
 20
16.5294064142
 10
-12075.0259843
 20
20.0928913285
 10
-11963.2903811
 20
23.6563759944
 10
-11851.554778
 20
27.2198604022
 10
-11739.8191749
 20
30.7833445418
 10
-11628.0835717
 20
34.3468284026
 10
-11516.3479685
 20
37.9103119733
 10
-11404.6123654
 20
41.4737952423
 10
-11292.8767622
 20
45.0372781969
 10
-11181.141159
 20
48.6007608242
 10
-11069.4055559
 20
52.1642431101
 10
-10957.6699527
 20
55.72772504
 10
-10845.9343495
 20
59.2912065984
 10
-10734.1987462
 20
62.8546877688
 10
-10622.463143
 20
66.4181685336
 10
-10510.7275398
 20
69.9816488746
 10
-10398.9919366
 20
73.5451287718
 10
-10287.2563333
 20
77.1086082046
 10
-10175.52073
 20
80.6720871505
 10
-10063.7851268
 20
84.2355655861
 10
-9952.04952348
 20
87.799043486
 10
-9840.31392018
 20
91.3625208233
 10
-9728.57831687
 20
94.9259975694
 10
-9616.84271354
 20
98.4894736933
 10
-9505.1071102
 20
102.052949162
 10
-9393.37150684
 20
105.616423941
 10
-9281.63590346
 20
109.179897992
 10
-9169.90030007
 20
112.743371274
 10
-9058.16469666
 20
116.306843743
 10
-8946.42909322
 20
119.870315353
 10
-8834.69348977
 20
123.433786052
 10
-8722.95788629
 20
126.997255785
 10
-8611.22228279
 20
130.560724494
 10
-8499.48667927
 20
134.124192113
 10
-8387.75107572
 20
137.687658573
 10
-8276.01547214
 20
141.251123797
 10
-8164.27986853
 20
144.814587703
 10
-8052.54426488
 20
148.3780502
 10
-7940.8086612
 20
151.941511189
 10
-7829.07305749
 20
155.504970561
 10
-7717.33745373
 20
159.068428198
 10
-7605.60184993
 20
162.631883968
 10
-7493.86624608
 20
166.195337727
 10
-7382.13064219
 20
169.758789315
 10
-7270.39503824
 20
173.322238553
 10
-7158.65943423
 20
176.885685245
 10
-7046.92383015
 20
180.449129171
 10
-6935.18822601
 20
184.012570085
 10
-6823.45262179
 20
187.576007709
 10
-6711.71701749
 20
191.139441733
 10
-6599.98141309
 20
194.702871805
 10
-6488.24580859
 20
198.266297526
 10
-6376.51020399
 20
201.829718442
 10
-6264.77459926
 20
205.393134031
 10
-6153.03899439
 20
208.956543695
 10
-6041.30338937
 20
212.519946744
 10
-5929.56778417
 20
216.083342373
 10
-5817.83217879
 20
219.646729643
 10
-5706.09657318
 20
223.210107451
 10
-5594.36096732
 20
226.773474488
 10
-5482.62536118
 20
230.336829195
 10
-5370.88975471
 20
233.900169693
 10
-5259.15414786
 20
237.463493703
 10
-5147.41854056
 20
241.026798434
 10
-5035.68293273
 20
244.590080422
 10
-4923.94732427
 20
248.153335325
 10
-4812.21171506
 20
251.716557617
 10
-4700.47610493
 20
255.279740163
  0
LWPOLYLINE
  5
2d4
330
1F
100
AcDbEntity
  8
main_beam_width
100
AcDbPolyline
 90
10
 70
0
43
0.0
 10
-4700.47611075
 20
255.280075622
 10
-6340.65329669
 20
250.671233136
 10
-7980.83045243
 20
246.051755122
 10
-9621.00757773
 20
241.421553294
 10
-11261.1846724
 20
236.780564633
 10
-12901.3617364
 20
232.128752148
 10
-14541.5387696
 20
227.46610533
 10
-16181.7157721
 20
222.792640274
 10
-17821.8927439
 20
218.10839949
 10
-19462.0696855
 20
213.41345138
  0
LWPOLYLINE
  5
2d5
330
1F
100
AcDbEntity
  8
main_beam_width
100
AcDbPolyline
 90
10
 70
0
43
0.0
 10
-4700.82315696
 20
281.962568689
 10
-6340.96993037
 20
277.259316493
 10
-7981.11673397
 20
272.566699447
 10
-9621.26356802
 20
267.884805831
 10
-11261.4104327
 20
263.213698658
 10
-12901.5573281
 20
258.553414912
 10
-14541.7042542
 20
253.903965103
 10
-16181.8512111
 20
249.265333131
 10
-17821.9981985
 20
244.637476489
 10
-19462.1452163
 20
240.020326779
  0
LWPOLYLINE
  5
2d6
330
1F
100
AcDbEntity
  8
main_beam_width
100
AcDbPolyline
 90
10
 70
0
43
0.0
 10
133.136762272
 20
19.7520820016
 10
135.801862171
 20
-1726.31675743
 10
138.466984235
 20
-3472.38559683
 10
141.132128363
 20
-5218.4544362
 10
143.797294449
 20
-6964.52327553
 10
146.462482391
 20
-8710.59211484
 10
149.127692087
 20
-10456.6609541
 10
151.792923434
 20
-12202.7297934
 10
154.458176332
 20
-13948.7986326
 10
157.123450679
 20
-15694.8674717
  0
LWPOLYLINE
  5
2d7
330
1F
100
AcDbEntity
  8
main_beam_width
100
AcDbPolyline
 90
10
 70
0
43
0.0
 10
-83.2681997576
 20
-195.953208136
 10
-80.9767952241
 20
-1917.79721985
 10
-78.6854122356
 20
-3639.6412316
 10
-76.3940506919
 20
-5361.48524337
 10
-74.1027104938
 20
-7083.32925518
 10
-71.8113915424
 20
-8805.17326702
 10
-69.5200937397
 20
-10527.0172789
 10
-67.2288169881
 20
-12248.8612908
 10
-64.9375611905
 20
-13970.7053027
 10
-62.6463262506
 20
-15692.5493147
  0
LWPOLYLINE
  5
2d8
330
1F
100
AcDbEntity
  8
main_beam_width
100
AcDbPolyline
 90
100
 70
0
43
0.0
 10
-62.6500403415
 20
-15692.5492591
 10
-59.1431522095
 20
-15580.3525604
 10
-55.6362641682
 20
-15468.1558616
 10
-52.1293762199
 20
-15355.9591628
 10
-48.6224883673
 20
-15243.7624641
 10
-45.115600613
 20
-15131.5657653
 10
-41.6087129598
 20
-15019.3690666
 10
-38.1018254107
 20
-14907.1723678
 10
-34.5949379685
 20
-14794.975669
 10
-31.0880506364
 20
-14682.7789703
 10
-27.5811634177
 20
-14570.5822715
 10
-24.0742763157
 20
-14458.3855727
 10
-20.5673893338
 20
-14346.188874
 10
-17.0605024757
 20
-14233.9921752
 10
-13.5536157453
 20
-14121.7954764
 10
-10.0467291464
 20
-14009.5987776
 10
-6.53984268306
 20
-13897.4020788
 10
-3.03295635968
 20
-13785.20538
 10
0.473929819349
 20
-13673.0086812
 10
3.98081584937
 20
-13560.8119824
 10
7.48770172554
 20
-13448.6152836
 10
10.9945874428
 20
-13336.4185848
 10
14.5014729959
 20
-13224.221886
 10
18.0083583792
 20
-13112.0251872
 10
21.5152435871
 20
-12999.8284884
 10
25.0221286135
 20
-12887.6317896
 10
28.529013452
 20
-12775.4350907
 10
32.0358980961
 20
-12663.2383919
 10
35.5427825388
 20
-12551.0416931
 10
39.0496667729
 20
-12438.8449942
 10
42.5565507907
 20
-12326.6482954
 10
46.0634345843
 20
-12214.4515965
 10
49.5703181453
 20
-12102.2548977
 10
53.077201465
 20
-11990.0581988
 10
56.5840845339
 20
-11877.8615
 10
60.0909673424
 20
-11765.6648011
 10
63.5978498803
 20
-11653.4681022
 10
67.1047321368
 20
-11541.2714033
 10
70.6116141004
 20
-11429.0747044
 10
74.1184957592
 20
-11316.8780056
 10
77.6253771005
 20
-11204.6813066
 10
81.132258111
 20
-11092.4846077
 10
84.6391387765
 20
-10980.2879088
 10
88.1460190821
 20
-10868.0912099
 10
91.652899012
 20
-10755.894511
 10
95.1597785493
 20
-10643.697812
 10
98.6666576764
 20
-10531.5011131
 10
102.173536374
 20
-10419.3044141
 10
105.680414623
 20
-10307.1077151
 10
109.187292401
 20
-10194.9110161
 10
112.694169686
 20
-10082.7143171
 10
116.201046454
 20
-9970.51761813
 10
119.707922678
 20
-9858.32091912
 10
123.214798332
 20
-9746.12422008
 10
126.721673386
 20
-9633.92752104
 10
130.228547809
 20
-9521.73082198
 10
133.735421566
 20
-9409.5341229
 10
137.242294622
 20
-9297.33742381
 10
140.749166938
 20
-9185.14072471
 10
144.256038472
 20
-9072.94402558
 10
147.76290918
 20
-8960.74732644
 10
151.269779012
 20
-8848.55062728
 10
154.776647918
 20
-8736.35392809
 10
158.283515839
 20
-8624.15722889
 10
161.790382715
 20
-8511.96052966
 10
165.29724848
 20
-8399.7638304
 10
168.804113062
 20
-8287.56713112
 10
172.310976382
 20
-8175.37043181
 10
175.817838354
 20
-8063.17373247
 10
179.324698885
 20
-7950.9770331
 10
182.831557872
 20
-7838.78033369
 10
186.338415204
 20
-7726.58363425
 10
189.845270757
 20
-7614.38693476
 10
193.352124395
 20
-7502.19023523
 10
196.858975967
 20
-7389.99353566
 10
200.365825307
 20
-7277.79683603
 10
203.872672231
 20
-7165.60013636
 10
207.379516533
 20
-7053.40343662
 10
210.886357983
 20
-6941.20673681
 10
214.393196323
 20
-6829.01003694
 10
217.900031265
 20
-6716.81333699
 10
221.406862481
 20
-6604.61663696
 10
224.913689603
 20
-6492.41993684
 10
228.420512209
 20
-6380.22323661
 10
231.927329821
 20
-6268.02653627
 10
235.434141889
 20
-6155.8298358
 10
238.940947778
 20
-6043.6331352
 10
242.447746754
 20
-5931.43643444
 10
245.954537962
 20
-5819.23973351
 10
249.461320399
 20
-5707.04303238
 10
252.968092881
 20
-5594.84633102
 10
256.474854003
 20
-5482.64962941
 10
259.981602081
 20
-5370.4529275
 10
263.488335082
 20
-5258.25622526
 10
266.995050524
 20
-5146.05952262
 10
270.501745355
 20
-5033.86281951
 10
274.008415766
 20
-4921.66611585
 10
277.515056951
 20
-4809.46941154
 10
281.021662756
 20
-4697.27270643
 10
284.528225164
 20
-4585.07600034
  0
LWPOLYLINE
  5
2d9
330
1F
100
AcDbEntity
  8
main_beam_width
100
AcDbPolyline
 90
100
 70
0
43
0.0
 10
157.115556834
 20
-15694.8674233
 10
158.664376874
 20
-15582.6505425
 10
160.213197004
 20
-15470.4336616
 10
161.762017228
 20
-15358.2167808
 10
163.310837546
 20
-15245.9998999
 10
164.859657964
 20
-15133.7830191
 10
166.408478482
 20
-15021.5661383
 10
167.957299105
 20
-14909.3492575
 10
169.506119834
 20
-14797.1323766
 10
171.054940674
 20
-14684.9154958
 10
172.603761627
 20
-14572.698615
 10
174.152582697
 20
-14460.4817342
 10
175.701403886
 20
-14348.2648534
 10
177.2502252
 20
-14236.0479725
 10
178.799046641
 20
-14123.8310917
 10
180.347868214
 20
-14011.6142109
 10
181.896689923
 20
-13899.3973301
 10
183.445511771
 20
-13787.1804493
 10
184.994333764
 20
-13674.9635685
 10
186.543155906
 20
-13562.7466877
 10
188.091978202
 20
-13450.5298069
 10
189.640800657
 20
-13338.3129261
 10
191.189623276
 20
-13226.0960454
 10
192.738446064
 20
-13113.8791646
 10
194.287269029
 20
-13001.6622838
 10
195.836092175
 20
-12889.445403
 10
197.384915508
 20
-12777.2285223
 10
198.933739036
 20
-12665.0116415
 10
200.482562766
 20
-12552.7947608
 10
202.031386704
 20
-12440.57788
 10
203.580210859
 20
-12328.3609992
 10
205.129035237
 20
-12216.1441185
 10
206.677859849
 20
-12103.9272378
 10
208.226684702
 20
-11991.710357
 10
209.775509805
 20
-11879.4934763
 10
211.324335169
 20
-11767.2765956
 10
212.873160804
 20
-11655.0597149
 10
214.42198672
 20
-11542.8428342
 10
215.970812929
 20
-11430.6259535
 10
217.519639443
 20
-11318.4090728
 10
219.068466275
 20
-11206.1921921
 10
220.617293437
 20
-11093.9753114
 10
222.166120945
 20
-10981.7584307
 10
223.714948812
 20
-10869.5415501
 10
225.263777055
 20
-10757.3246694
 10
226.812605691
 20
-10645.1077888
 10
228.361434738
 20
-10532.8909081
 10
229.910264213
 20
-10420.6740275
 10
231.459094138
 20
-10308.4571469
 10
233.007924533
 20
-10196.2402663
 10
234.556755422
 20
-10084.0233857
 10
236.105586828
 20
-9971.80650507
 10
237.654418777
 20
-9859.5896245
 10
239.203251297
 20
-9747.37274394
 10
240.752084417
 20
-9635.15586339
 10
242.300918169
 20
-9522.93898286
 10
243.849752586
 20
-9410.72210234
 10
245.398587704
 20
-9298.50522184
 10
246.947423563
 20
-9186.28834136
 10
248.496260203
 20
-9074.07146089
 10
250.045097671
 20
-8961.85458044
 10
251.593936013
 20
-8849.63770001
 10
253.142775283
 20
-8737.4208196
 10
254.691615537
 20
-8625.20393922
 10
256.240456836
 20
-8512.98705886
 10
257.789299247
 20
-8400.77017852
 10
259.338142842
 20
-8288.55329821
 10
260.886987698
 20
-8176.33641793
 10
262.435833903
 20
-8064.11953767
 10
263.984681549
 20
-7951.90265745
 10
265.533530738
 20
-7839.68577727
 10
267.082381583
 20
-7727.46889712
 10
268.631234208
 20
-7615.25201701
 10
270.180088749
 20
-7503.03513695
 10
271.728945355
 20
-7390.81825693
 10
273.277804193
 20
-7278.60137697
 10
274.826665448
 20
-7166.38449705
 10
276.375529326
 20
-7054.1676172
 10
277.924396056
 20
-6941.95073741
 10
279.473265897
 20
-6829.73385769
 10
281.022139136
 20
-6717.51697805
 10
282.571016102
 20
-6605.30009849
 10
284.119897163
 20
-6493.08321902
 10
285.668782739
 20
-6380.86633966
 10
287.217673311
 20
-6268.6494604
 10
288.766569429
 20
-6156.43258128
 10
290.315471726
 20
-6044.21570229
 10
291.864380936
 20
-5931.99882345
 10
293.413297917
 20
-5819.7819448
 10
294.96222367
 20
-5707.56506634
 10
296.511159379
 20
-5595.3481881
 10
298.06010645
 20
-5483.13131012
 10
299.609066567
 20
-5370.91443244
 10
301.158041763
 20
-5258.69755509
 10
302.70703452
 20
-5146.48067814
 10
304.256047892
 20
-5034.26380165
 10
305.805085686
 20
-4922.04692572
 10
307.35415271
 20
-4809.83005044
 10
308.903255119
 20
-4697.61317596
 10
310.452400928
 20
-4585.39630246
  0
LWPOLYLINE
  5
2da
330
1F
100
AcDbEntity
  8
main_beam_width
100
AcDbPolyline
 90
10
 70
0
43
0.0
 10
310.453219348
 20
-4585.39630902
 10
306.813826218
 20
-6223.29448563
 10
303.186035955
 20
-7861.19268759
 10
299.569981301
 20
-9499.0909152
 10
295.965764484
 20
-11136.9891687
 10
292.373455825
 20
-12774.8874482
 10
288.793092773
 20
-14412.7857538
 10
285.224679385
 20
-16050.6840855
 10
281.668186268
 20
-17688.5824432
 10
278.123550987
 20
-19326.4808269
  0
LWPOLYLINE
  5
2db
330
1F
100
AcDbEntity
  8
main_beam_width
100
AcDbPolyline
 90
10
 70
0
43
0.0
 10
284.528550812
 20
-4585.07600578
 10
281.010051345
 20
-6223.00374168
 10
277.479948617
 20
-7860.93145222
 10
273.938109874
 20
-9498.85913712
 10
270.384432881
 20
-11136.7867962
 10
266.818847309
 20
-12774.7144292
 10
263.241315704
 20
-14412.6420361
 10
259.651834007
 20
-16050.5696169
 10
256.050431612
 20
-17688.4971716
 10
252.437170954
 20
-19326.4247005
  0
CIRCLE
  5
2dd
330
1F
100
AcDbEntity
  8
Vacuum
100
AcDbCircle
 10
-19512.0901964
 20
226.574999379
 30
0.0
  40
750.0
  0
LWPOLYLINE
  5
2de
330
1F
100
AcDbEntity
  8
Vacuum
100
AcDbPolyline
 90
5
 70
0
43
0.0
 10
-20362.0901964
 20
619.074999379
 10
-18662.0901964
 20
619.074999379
 10
-18662.0901964
 20
-165.925000621
 10
-20362.0901964
 20
-165.925000621
 10
-20362.0901964
 20
619.074999379
  0
CIRCLE
  5
2df
330
1F
100
AcDbEntity
  8
Vacuum
100
AcDbCircle
 10
-4648.14247562
 20
269.304550668
 30
0.0
  40
750.0
  0
LWPOLYLINE
  5
2e0
330
1F
100
AcDbEntity
  8
Vacuum
100
AcDbPolyline
 90
5
 70
0
43
0.0
 10
-5498.14247562
 20
501.804550668
 10
-3798.14247562
 20
501.804550668
 10
-3798.14247562
 20
-283.195449332
 10
-5498.14247562
 20
-283.195449332
 10
-5498.14247562
 20
501.804550668
  0
CIRCLE
  5
2e1
330
1F
100
AcDbEntity
  8
Vacuum
100
AcDbCircle
 10
-15813.4545987
 20
11.6583013092
 30
0.0
  40
750.0
  0
LWPOLYLINE
  5
2e2
330
1F
100
AcDbEntity
  8
Vacuum
100
AcDbPolyline
 90
5
 70
0
43
0.0
 10
-16663.4545987
 20
564.158301309
 10
-14963.4545987
 20
564.158301309
 10
-14963.4545987
 20
-220.841698691
 10
-16663.4545987
 20
-220.841698691
 10
-16663.4545987
 20
564.158301309
  0
LINE
  5
2e3
330
1F
100
AcDbEntity
  8
Vacuum
100
AcDbLine
 10
-18662.0901964
 20
619.074999379
 30
0.0
  11
-16663.4545987
 21
564.158301309
 31
0.0
  0
LINE
  5
2e4
330
1F
100
AcDbEntity
  8
Vacuum
100
AcDbLine
 10
-18662.0901964
 20
-165.925000621
 30
0.0
  11
-16663.4545987
 21
-220.841698691
 31
0.0
  0
LINE
  5
2e5
330
1F
100
AcDbEntity
  8
Vacuum
100
AcDbLine
 10
-14963.4545987
 20
564.158301309
 30
0.0
  11
-5498.14247562
 21
501.804550668
 31
0.0
  0
LINE
  5
2e6
330
1F
100
AcDbEntity
  8
Vacuum
100
AcDbLine
 10
-14963.4545987
 20
-220.841698691
 30
0.0
  11
-5498.14247562
 21
-283.195449332
 31
0.0
  0
CIRCLE
  5
2e7
330
1F
100
AcDbEntity
  8
Vacuum
100
AcDbCircle
 10
28.2779650527
 20
-28.2905760365
 30
0.0
  40
750.0
  0
LWPOLYLINE
  5
2e8
330
1F
100
AcDbEntity
  8
Vacuum
100
AcDbPolyline
 90
5
 70
0
43
0.0
 10
-821.722034947
 20
364.209423964
 10
878.277965053
 20
364.209423964
 10
878.277965053
 20
-420.790576036
 10
-821.722034947
 20
-420.790576036
 10
-821.722034947
 20
364.209423964
  0
LWPOLYLINE
  5
2e9
330
1F
100
AcDbEntity
  8
Vacuum
100
AcDbPolyline
 90
5
 70
0
43
0.0
 10
-364.222034947
 20
821.709423964
 10
420.777965053
 20
821.709423964
 10
420.777965053
 20
-878.290576036
 10
-364.222034947
 20
-878.290576036
 10
-364.222034947
 20
821.709423964
  0
LINE
  5
2ea
330
1F
100
AcDbEntity
  8
Vacuum
100
AcDbLine
 10
-3798.14247562
 20
501.804550668
 30
0.0
  11
-821.722034947
 21
364.209423964
 31
0.0
  0
LINE
  5
2eb
330
1F
100
AcDbEntity
  8
Vacuum
100
AcDbLine
 10
-3798.14247562
 20
-283.195449332
 30
0.0
  11
-821.722034947
 21
-420.790576036
 31
0.0
  0
CIRCLE
  5
2ec
330
1F
100
AcDbEntity
  8
Vacuum
100
AcDbCircle
 10
265.171145199
 20
-19376.4355913
 30
0.0
  40
750.0
  0
LWPOLYLINE
  5
2ed
330
1F
100
AcDbEntity
  8
Vacuum
100
AcDbPolyline
 90
5
 70
0
43
0.0
 10
-127.328854801
 20
-18526.4355913
 10
657.671145199
 20
-18526.4355913
 10
657.671145199
 20
-20226.4355913
 10
-127.328854801
 20
-20226.4355913
 10
-127.328854801
 20
-18526.4355913
  0
CIRCLE
  5
2ee
330
1F
100
AcDbEntity
  8
Vacuum
100
AcDbCircle
 10
298.140858953
 20
-4532.65181384
 30
0.0
  40
750.0
  0
LWPOLYLINE
  5
2ef
330
1F
100
AcDbEntity
  8
Vacuum
100
AcDbPolyline
 90
5
 70
0
43
0.0
 10
-254.359141047
 20
-3682.65181384
 10
530.640858953
 20
-3682.65181384
 10
530.640858953
 20
-5382.65181384
 10
-254.359141047
 20
-5382.65181384
 10
-254.359141047
 20
-3682.65181384
  0
CIRCLE
  5
2f0
330
1F
100
AcDbEntity
  8
Vacuum
100
AcDbCircle
 10
46.7147158387
 20
-15743.6344271
 30
0.0
  40
750.0
  0
LWPOLYLINE
  5
2f1
330
1F
100
AcDbEntity
  8
Vacuum
100
AcDbPolyline
 90
5
 70
0
43
0.0
 10
-345.785284161
 20
-14893.6344271
 10
439.214715839
 20
-14893.6344271
 10
439.214715839
 20
-16593.6344271
 10
-345.785284161
 20
-16593.6344271
 10
-345.785284161
 20
-14893.6344271
  0
LINE
  5
2f2
330
1F
100
AcDbEntity
  8
Vacuum
100
AcDbLine
 10
-127.328854801
 20
-18526.4355913
 30
0.0
  11
-345.785284161
 21
-16593.6344271
 31
0.0
  0
LINE
  5
2f3
330
1F
100
AcDbEntity
  8
Vacuum
100
AcDbLine
 10
657.671145199
 20
-18526.4355913
 30
0.0
  11
439.214715839
 21
-16593.6344271
 31
0.0
  0
LINE
  5
2f4
330
1F
100
AcDbEntity
  8
Vacuum
100
AcDbLine
 10
-345.785284161
 20
-14893.6344271
 30
0.0
  11
-254.359141047
 21
-5382.65181384
 31
0.0
  0
LINE
  5
2f5
330
1F
100
AcDbEntity
  8
Vacuum
100
AcDbLine
 10
439.214715839
 20
-14893.6344271
 30
0.0
  11
530.640858953
 21
-5382.65181384
 31
0.0
  0
LINE
  5
2f6
330
1F
100
AcDbEntity
  8
Vacuum
100
AcDbLine
 10
-254.359141047
 20
-3682.65181384
 30
0.0
  11
-364.222034947
 21
-878.290576036
 31
0.0
  0
LINE
  5
2f7
330
1F
100
AcDbEntity
  8
Vacuum
100
AcDbLine
 10
530.640858953
 20
-3682.65181384
 30
0.0
  11
420.777965053
 21
-878.290576036
 31
0.0
  0
CIRCLE
  5
2f8
330
1F
100
AcDbEntity
  8
Vacuum
100
AcDbCircle
 10
26432.1160223
 20
-16.3807284905
 30
0.0
  40
1250.0
  0
LWPOLYLINE
  5
2f9
330
1F
100
AcDbEntity
  8
Vacuum
100
AcDbPolyline
 90
5
 70
0
43
0.0
 10
25082.1160223
 20
376.119271509
 10
27782.1160223
 20
376.119271509
 10
27782.1160223
 20
-408.880728491
 10
25082.1160223
 20
-408.880728491
 10
25082.1160223
 20
376.119271509
  0
CIRCLE
  5
2fa
330
1F
100
AcDbEntity
  8
Vacuum
100
AcDbCircle
 10
-7.59055707329
 20
23146.9789127
 30
0.0
  40
1250.0
  0
LWPOLYLINE
  5
2fb
330
1F
100
AcDbEntity
  8
Vacuum
100
AcDbPolyline
 90
5
 70
0
43
0.0
 10
-400.090557073
 20
24496.9789127
 10
384.909442927
 20
24496.9789127
 10
384.909442927
 20
21796.9789127
 10
-400.090557073
 20
21796.9789127
 10
-400.090557073
 20
24496.9789127
  0
LINE
  5
2fc
330
1F
100
AcDbEntity
  8
Vacuum
100
AcDbLine
 10
878.277965053
 20
364.209423964
 30
0.0
  11
25082.1160223
 21
376.119271509
 31
0.0
  0
LINE
  5
2fd
330
1F
100
AcDbEntity
  8
Vacuum
100
AcDbLine
 10
878.277965053
 20
-420.790576036
 30
0.0
  11
25082.1160223
 21
-408.880728491
 31
0.0
  0
LINE
  5
2fe
330
1F
100
AcDbEntity
  8
Vacuum
100
AcDbLine
 10
-364.222034947
 20
821.709423964
 30
0.0
  11
-400.090557073
 21
21796.9789127
 31
0.0
  0
LINE
  5
2ff
330
1F
100
AcDbEntity
  8
Vacuum
100
AcDbLine
 10
420.777965053
 20
821.709423964
 30
0.0
  11
384.909442927
 21
21796.9789127
 31
0.0
  0
LINE
  5
301
330
1F
100
AcDbEntity
  8
poxpoy_beam
100
AcDbLine
 10
-7.45966013212
 20
23221.9757285
 30
0.0
  11
-7.32874241651
 21
23071.9787985
 31
0.0
  0
LINE
  5
302
330
1F
100
AcDbEntity
  8
poxpoy_beam
100
AcDbLine
 10
35.5166532741
 20
35.5008211491
 30
0.0
  11
60.5468715896
 21
-52.6031139417
 31
0.0
  0
LINE
  5
303
330
1F
100
AcDbEntity
  8
poxpoy_beam
100
AcDbLine
 10
-7.5905570805
 20
23071.9789127
 30
0.0
  11
-7.45966013212
 21
23221.9757285
 31
0.0
  0
LINE
  5
304
330
1F
100
AcDbEntity
  8
poxpoy_beam
100
AcDbLine
 10
-7.32874241651
 20
23071.9787985
 30
0.0
  11
35.5166532741
 21
35.5008211491
 31
0.0
  0
LINE
  5
305
330
1F
100
AcDbEntity
  8
poxpoy_beam
100
AcDbLine
 10
-15764.3684803
 20
71.9315809372
 30
0.0
  11
-4700.89504756
 21
292.233282173
 31
0.0
  0
LINE
  5
306
330
1F
100
AcDbEntity
  8
poxpoy_beam
100
AcDbLine
 10
88.2163902141
 20
-25.0230553013
 30
0.0
  11
32.3196010615
 21
-15693.7889054
 31
0.0
  0
LINE
  5
307
330
1F
100
AcDbEntity
  8
poxpoy_beam
100
AcDbLine
 10
35.5166532741
 20
35.5008211491
 30
0.0
  11
-15764.3684803
 21
71.9315809372
 31
0.0
  0
LINE
  5
308
330
1F
100
AcDbEntity
  8
poxpoy_beam
100
AcDbLine
 10
-4700.89504756
 20
292.233282173
 30
0.0
  11
-19700.2533885
 21
430.975347515
 31
0.0
  0
LINE
  5
309
330
1F
100
AcDbEntity
  8
poxpoy_beam
100
AcDbLine
 10
32.3196010615
 20
-15693.7889054
 30
0.0
  11
240.379429695
 21
-4584.01241698
 31
0.0
  0
LINE
  5
30a
330
1F
100
AcDbEntity
  8
poxpoy_beam
100
AcDbLine
 10
240.379429695
 20
-4584.01241698
 30
0.0
  11
-250.941281021
 21
-15684.8694323
 31
0.0
  0
LWPOLYLINE
  5
30d
330
1F
100
AcDbEntity
  8
poxpoy_beam_width
100
AcDbPolyline
 90
10
 70
0
43
0.0
 10
27.9037111956
 20
23221.9757309
 10
27.9191909485
 20
23205.3076902
 10
27.9346707015
 20
23188.6396495
 10
27.9501504549
 20
23171.9716088
 10
27.9656302084
 20
23155.3035681
 10
27.9811099622
 20
23138.6355274
 10
27.9965897163
 20
23121.9674867
 10
28.0120694705
 20
23105.299446
 10
28.027549225
 20
23088.6314053
 10
28.0430289797
 20
23071.9633646
  0
LWPOLYLINE
  5
30e
330
1F
100
AcDbEntity
  8
poxpoy_beam_width
100
AcDbPolyline
 90
10
 70
0
43
0.0
 10
-42.823028009
 20
23221.9757261
 10
-42.8094147443
 20
23205.3111156
 10
-42.7958014798
 20
23188.6465052
 10
-42.7821882156
 20
23171.9818948
 10
-42.7685749516
 20
23155.3172844
 10
-42.7549616879
 20
23138.652674
 10
-42.7413484243
 20
23121.9880636
 10
-42.727735161
 20
23105.3234531
 10
-42.714121898
 20
23088.6588427
 10
-42.7005086351
 20
23071.9942323
  0
LWPOLYLINE
  5
30f
330
1F
100
AcDbEntity
  8
poxpoy_beam_width
100
AcDbPolyline
 90
10
 70
0
43
0.0
 10
73.0770121284
 20
73.0444368633
 10
75.8611760638
 20
63.2464966826
 10
78.6453399992
 20
53.4485565018
 10
81.4295039347
 20
43.650616321
 10
84.2136678703
 20
33.8526761403
 10
86.9978318059
 20
24.0547359595
 10
89.7819957416
 20
14.2567957788
 10
92.5661596773
 20
4.45885559813
 10
95.3503236131
 20
-5.33908458256
 10
98.1344875489
 20
-15.1370247632
  0
LWPOLYLINE
  5
310
330
1F
100
AcDbEntity
  8
poxpoy_beam_width
100
AcDbPolyline
 90
10
 70
0
43
0.0
 10
-2.04600366654
 20
-2.04509162718
 10
0.732103787765
 20
-11.8258023262
 10
3.51021124202
 20
-21.6065130253
 10
6.28831869622
 20
-31.3872237243
 10
9.06642615037
 20
-41.1679344234
 10
11.8445336045
 20
-50.9486451225
 10
14.6226410585
 20
-60.7293558216
 10
17.4007485125
 20
-70.5100665208
 10
20.1788559664
 20
-80.2907772199
 10
22.9569634203
 20
-90.0714879191
  0
LWPOLYLINE
  5
311
330
1F
100
AcDbEntity
  8
poxpoy_beam_width
100
AcDbPolyline
 90
10
 70
0
43
0.0
 10
-42.9511107968
 20
23071.9943416
 10
-42.9368795027
 20
23088.6589399
 10
-42.9226482088
 20
23105.3235382
 10
-42.9084169151
 20
23121.9881365
 10
-42.8941856216
 20
23138.6527347
 10
-42.8799543284
 20
23155.317333
 10
-42.8657230354
 20
23171.9819313
 10
-42.8514917427
 20
23188.6465295
 10
-42.8372604501
 20
23205.3111278
 10
-42.8230291579
 20
23221.9757261
  0
LWPOLYLINE
  5
312
330
1F
100
AcDbEntity
  8
poxpoy_beam_width
100
AcDbPolyline
 90
10
 70
0
43
0.0
 10
27.7699972123
 20
23071.9634837
 10
27.784854193
 20
23088.6315112
 10
27.7997111739
 20
23105.2995387
 10
27.814568155
 20
23121.9675661
 10
27.8294251364
 20
23138.6355936
 10
27.844282118
 20
23155.3036211
 10
27.8591390998
 20
23171.9716485
 10
27.8739960819
 20
23188.639676
 10
27.8888530642
 20
23205.3077035
 10
27.9037100467
 20
23221.9757309
  0
LWPOLYLINE
  5
313
330
1F
100
AcDbEntity
  8
poxpoy_beam_width
100
AcDbPolyline
 90
10
 70
0
43
0.0
 10
28.0430343555
 20
23071.9633646
 10
33.0464663986
 20
20516.5276481
 10
38.0499150136
 20
17961.0919317
 10
43.0533798555
 20
15405.6562153
 10
48.0568605889
 20
12850.2204989
 10
53.0603568876
 20
10294.7847825
 10
58.0638684341
 20
7739.34906619
 10
63.0673949196
 20
5183.91334989
 10
68.0709360435
 20
2628.47763362
 10
73.0744915132
 20
73.0419173717
  0
LWPOLYLINE
  5
314
330
1F
100
AcDbEntity
  8
poxpoy_beam_width
100
AcDbPolyline
 90
10
 70
0
43
0.0
 10
-42.7005032594
 20
23071.9942323
 10
-38.1835531823
 20
20508.2118053
 10
-33.6666197843
 20
17944.4293783
 10
-29.1497027172
 20
15380.6469512
 10
-24.6328016423
 20
12816.8645241
 10
-20.1159162303
 20
10253.082097
 10
-15.5990461608
 20
7689.29966985
 10
-11.0821911221
 20
5125.51724267
 10
-6.56535081066
 20
2561.73481546
 10
-2.04852493134
 20
-2.04761176808
  0
LWPOLYLINE
  5
315
330
1F
100
AcDbEntity
  8
poxpoy_beam_width
100
AcDbPolyline
 90
100
 70
0
43
0.0
 10
-15764.6825599
 20
111.113394926
 10
-15652.9273755
 20
112.998080217
 10
-15541.1721911
 20
114.882765533
 10
-15429.4170067
 20
116.767450874
 10
-15317.6618223
 20
118.65213624
 10
-15205.9066379
 20
120.536821633
 10
-15094.1514535
 20
122.421507054
 10
-14982.3962692
 20
124.306192502
 10
-14870.6410848
 20
126.190877979
 10
-14758.8859004
 20
128.075563485
 10
-14647.130716
 20
129.960249022
 10
-14535.3755316
 20
131.84493459
 10
-14423.6203472
 20
133.729620191
 10
-14311.8651629
 20
135.614305824
 10
-14200.1099785
 20
137.498991492
 10
-14088.3547941
 20
139.383677195
 10
-13976.5996097
 20
141.268362934
 10
-13864.8444253
 20
143.153048711
 10
-13753.089241
 20
145.037734526
 10
-13641.3340566
 20
146.92242038
 10
-13529.5788722
 20
148.807106276
 10
-13417.8236878
 20
150.691792214
 10
-13306.0685035
 20
152.576478195
 10
-13194.3133191
 20
154.461164222
 10
-13082.5581347
 20
156.345850294
 10
-12970.8029503
 20
158.230536416
 10
-12859.047766
 20
160.115222586
 10
-12747.2925816
 20
161.999908808
 10
-12635.5373972
 20
163.884595084
 10
-12523.7822129
 20
165.769281414
 10
-12412.0270285
 20
167.653967801
 10
-12300.2718441
 20
169.538654247
 10
-12188.5166598
 20
171.423340755
 10
-12076.7614754
 20
173.308027325
 10
-11965.0062911
 20
175.192713962
 10
-11853.2511067
 20
177.077400666
 10
-11741.4959223
 20
178.962087441
 10
-11629.740738
 20
180.84677429
 10
-11517.9855536
 20
182.731461215
 10
-11406.2303693
 20
184.616148219
 10
-11294.4751849
 20
186.500835306
 10
-11182.7200006
 20
188.385522479
 10
-11070.9648162
 20
190.270209741
 10
-10959.2096319
 20
192.154897096
 10
-10847.4544475
 20
194.039584548
 10
-10735.6992632
 20
195.924272101
 10
-10623.9440788
 20
197.80895976
 10
-10512.1888945
 20
199.693647529
 10
-10400.4337102
 20
201.578335413
 10
-10288.6785258
 20
203.463023418
 10
-10176.9233415
 20
205.347711549
 10
-10065.1681572
 20
207.232399811
 10
-9953.41297285
 20
209.117088211
 10
-9841.65778852
 20
211.001776757
 10
-9729.9026042
 20
212.886465454
 10
-9618.14741989
 20
214.771154311
 10
-9506.39223557
 20
216.655843335
 10
-9394.63705126
 20
218.540532535
 10
-9282.88186696
 20
220.425221922
 10
-9171.12668265
 20
222.309911503
 10
-9059.37149836
 20
224.194601291
 10
-8947.61631406
 20
226.079291296
 10
-8835.86112977
 20
227.963981531
 10
-8724.10594549
 20
229.848672009
 10
-8612.35076121
 20
231.733362745
 10
-8500.59557693
 20
233.618053753
 10
-8388.84039267
 20
235.502745051
 10
-8277.0852084
 20
237.387436657
 10
-8165.33002415
 20
239.27212859
 10
-8053.5748399
 20
241.156820871
 10
-7941.81965566
 20
243.041513524
 10
-7830.06447143
 20
244.926206574
 10
-7718.3092872
 20
246.810900049
 10
-7606.55410298
 20
248.695593979
 10
-7494.79891878
 20
250.580288397
 10
-7383.04373458
 20
252.464983341
 10
-7271.2885504
 20
254.349678849
 10
-7159.53336623
 20
256.234374967
 10
-7047.77818207
 20
258.119071745
 10
-6936.02299792
 20
260.003769236
 10
-6824.26781379
 20
261.888467503
 10
-6712.51262968
 20
263.773166613
 10
-6600.75744559
 20
265.657866644
 10
-6489.00226151
 20
267.54256768
 10
-6377.24707746
 20
269.42726982
 10
-6265.49189343
 20
271.311973174
 10
-6153.73670943
 20
273.196677867
 10
-6041.98152546
 20
275.081384042
 10
-5930.22634152
 20
276.966091863
 10
-5818.47115762
 20
278.850801521
 10
-5706.71597375
 20
280.735513235
 10
-5594.96078994
 20
282.620227263
 10
-5483.20560617
 20
284.504943904
 10
-5371.45042247
 20
286.389663515
 10
-5259.69523883
 20
288.274386519
 10
-5147.94005527
 20
290.159113423
 10
-5036.1848718
 20
292.043844843
 10
-4924.42968844
 20
293.928581529
 10
-4812.6745052
 20
295.813324408
 10
-4700.9193221
 20
297.698074637
  0
LWPOLYLINE
  5
316
330
1F
100
AcDbEntity
  8
poxpoy_beam_width
100
AcDbPolyline
 90
100
 70
0
43
0.0
 10
-15763.9927643
 20
32.7483413316
 10
-15652.2439595
 20
35.3142069072
 10
-15540.4951546
 20
37.8800724582
 10
-15428.7463497
 20
40.4459379842
 10
-15316.9975448
 20
43.0118034844
 10
-15205.2487399
 20
45.5776689581
 10
-15093.499935
 20
48.1435344046
 10
-14981.7511301
 20
50.7093998231
 10
-14870.0023252
 20
53.2752652129
 10
-14758.2535203
 20
55.841130573
 10
-14646.5047154
 20
58.4069959028
 10
-14534.7559105
 20
60.9728612013
 10
-14423.0071056
 20
63.5387264675
 10
-14311.2583007
 20
66.1045917007
 10
-14199.5094958
 20
68.6704568997
 10
-14087.7606909
 20
71.2363220635
 10
-13976.011886
 20
73.8021871911
 10
-13864.2630811
 20
76.3680522814
 10
-13752.5142762
 20
78.9339173332
 10
-13640.7654712
 20
81.4997823453
 10
-13529.0166663
 20
84.0656473164
 10
-13417.2678614
 20
86.6315122453
 10
-13305.5190565
 20
89.1973771306
 10
-13193.7702516
 20
91.7632419709
 10
-13082.0214467
 20
94.3291067647
 10
-12970.2726418
 20
96.8949715104
 10
-12858.5238369
 20
99.4608362064
 10
-12746.775032
 20
102.026700851
 10
-12635.026227
 20
104.592565443
 10
-12523.2774221
 20
107.158429979
 10
-12411.5286172
 20
109.724294459
 10
-12299.7798123
 20
112.290158879
 10
-12188.0310074
 20
114.856023239
 10
-12076.2822025
 20
117.421887535
 10
-11964.5333975
 20
119.987751765
 10
-11852.7845926
 20
122.553615928
 10
-11741.0357877
 20
125.119480019
 10
-11629.2869828
 20
127.685344037
 10
-11517.5381778
 20
130.251207979
 10
-11405.7893729
 20
132.817071842
 10
-11294.040568
 20
135.382935622
 10
-11182.291763
 20
137.948799316
 10
-11070.5429581
 20
140.514662921
 10
-10958.7941532
 20
143.080526433
 10
-10847.0453482
 20
145.646389847
 10
-10735.2965433
 20
148.212253161
 10
-10623.5477384
 20
150.778116369
 10
-10511.7989334
 20
153.343979467
 10
-10400.0501285
 20
155.909842449
 10
-10288.3013235
 20
158.475705312
 10
-10176.5525186
 20
161.041568048
 10
-10064.8037136
 20
163.607430653
 10
-9953.05490865
 20
166.173293119
 10
-9841.30610369
 20
168.739155441
 10
-9729.55729873
 20
171.30501761
 10
-9617.80849376
 20
173.870879621
 10
-9506.05968879
 20
176.436741463
 10
-9394.31088382
 20
179.00260313
 10
-9282.56207884
 20
181.568464611
 10
-9170.81327386
 20
184.134325896
 10
-9059.06446888
 20
186.700186976
 10
-8947.31566389
 20
189.266047838
 10
-8835.5668589
 20
191.83190847
 10
-8723.8180539
 20
194.397768858
 10
-8612.0692489
 20
196.96362899
 10
-8500.32044389
 20
199.529488849
 10
-8388.57163887
 20
202.095348418
 10
-8276.82283385
 20
204.66120768
 10
-8165.07402882
 20
207.227066614
 10
-8053.32522379
 20
209.7929252
 10
-7941.57641875
 20
212.358783414
 10
-7829.8276137
 20
214.924641231
 10
-7718.07880864
 20
217.490498624
 10
-7606.33000357
 20
220.056355561
 10
-7494.5811985
 20
222.62221201
 10
-7382.83239341
 20
225.188067935
 10
-7271.08358831
 20
227.753923294
 10
-7159.3347832
 20
230.319778043
 10
-7047.58597808
 20
232.885632134
 10
-6935.83717294
 20
235.45148551
 10
-6824.08836779
 20
238.017338111
 10
-6712.33956262
 20
240.583189869
 10
-6600.59075743
 20
243.149040706
 10
-6488.84195222
 20
245.714890538
 10
-6377.09314699
 20
248.280739266
 10
-6265.34434173
 20
250.846586781
 10
-6153.59553645
 20
253.412432956
 10
-6041.84673114
 20
255.97827765
 10
-5930.0979258
 20
258.544120697
 10
-5818.34912042
 20
261.109961908
 10
-5706.600315
 20
263.675801063
 10
-5594.85150953
 20
266.241637906
 10
-5483.10270401
 20
268.807472134
 10
-5371.35389843
 20
271.373303393
 10
-5259.60509279
 20
273.93913126
 10
-5147.85628706
 20
276.504955226
 10
-5036.10748125
 20
279.070774678
 10
-4924.35867533
 20
281.636588864
 10
-4812.60986929
 20
284.202396859
 10
-4700.8610631
 20
286.768197504
  0
LWPOLYLINE
  5
317
330
1F
100
AcDbEntity
  8
poxpoy_beam_width
100
AcDbPolyline
 90
10
 70
0
43
0.0
 10
124.397776314
 20
11.0413505837
 10
118.229958834
 20
-1733.9820979
 10
112.062148773
 20
-3479.0055464
 10
105.894346094
 20
-5224.02899493
 10
99.7265507644
 20
-6969.05244349
 10
93.5587627477
 20
-8714.07589208
 10
87.3909820096
 20
-10459.0993407
 10
81.2232085159
 20
-12204.1227893
 10
75.0554422323
 20
-13949.146238
 10
68.8876831248
 20
-15694.1696867
  0
LWPOLYLINE
  5
318
330
1F
100
AcDbEntity
  8
poxpoy_beam_width
100
AcDbPolyline
 90
10
 70
0
43
0.0
 10
52.0326153642
 20
-61.0898422134
 10
45.7792125879
 20
-1798.00813191
 10
39.5258024632
 20
-3534.92642158
 10
33.2723850249
 20
-5271.84471123
 10
27.0189603075
 20
-7008.76300085
 10
20.7655283454
 20
-8745.68129044
 10
14.5120891727
 20
-10482.59958
 10
8.25864282324
 20
-12219.5178696
 10
2.00518933081
 20
-13956.4361591
 10
-4.24827127111
 20
-15693.3544486
  0
LWPOLYLINE
  5
319
330
1F
100
AcDbEntity
  8
poxpoy_beam_width
100
AcDbPolyline
 90
10
 70
0
43
0.0
 10
-2.04852493134
 20
-2.04761176808
 10
-1753.37566327
 20
1.81869644414
 10
-3504.70280162
 20
5.6849981458
 10
-5256.02993999
 20
9.55129342486
 10
-7007.35707838
 20
13.4175823677
 10
-8758.68421678
 20
17.2838650593
 10
-10510.0113552
 20
21.1501415829
 10
-12261.3384936
 20
25.0164120203
 10
-14012.6656321
 20
28.8826764522
 10
-15763.9927705
 20
32.7489349574
  0
LWPOLYLINE
  5
31a
330
1F
100
AcDbEntity
  8
poxpoy_beam_width
100
AcDbPolyline
 90
10
 70
0
43
0.0
 10
73.0744915132
 20
73.0419173717
 10
-1686.67629265
 20
77.2721421972
 10
-3446.42707681
 20
81.5023735993
 10
-5206.17786094
 20
85.732611489
 10
-6965.92864506
 20
89.9628557784
 10
-8725.67942917
 20
94.1931063814
 10
-10485.4302133
 20
98.4233632134
 10
-12245.1809973
 20
102.653626191
 10
-14004.9317814
 20
106.883895234
 10
-15764.6825655
 20
111.11417026
  0
LWPOLYLINE
  5
31b
330
1F
100
AcDbEntity
  8
poxpoy_beam_width
100
AcDbPolyline
 90
100
 70
0
43
0.0
 10
-4700.86106402
 20
286.768326726
 10
-4852.37129768
 20
288.093038754
 10
-5003.88153149
 20
289.417735303
 10
-5155.39176543
 20
290.742416997
 10
-5306.90199951
 20
292.067084429
 10
-5458.41223371
 20
293.391738163
 10
-5609.92246803
 20
294.716378729
 10
-5761.43270247
 20
296.041006634
 10
-5912.94293703
 20
297.365622358
 10
-6064.45317169
 20
298.690226356
 10
-6215.96340646
 20
300.014819063
 10
-6367.47364132
 20
301.33940089
 10
-6518.98387629
 20
302.663972232
 10
-6670.49411135
 20
303.988533462
 10
-6822.00434649
 20
305.313084936
 10
-6973.51458173
 20
306.637626995
 10
-7125.02481705
 20
307.962159964
 10
-7276.53505245
 20
309.286684151
 10
-7428.04528793
 20
310.611199854
 10
-7579.55552348
 20
311.935707355
 10
-7731.06575911
 20
313.260206923
 10
-7882.57599481
 20
314.584698819
 10
-8034.08623058
 20
315.909183289
 10
-8185.59646641
 20
317.233660571
 10
-8337.10670231
 20
318.558130891
 10
-8488.61693827
 20
319.882594468
 10
-8640.12717429
 20
321.207051509
 10
-8791.63741037
 20
322.531502216
 10
-8943.14764651
 20
323.85594678
 10
-9094.6578827
 20
325.180385385
 10
-9246.16811895
 20
326.504818209
 10
-9397.67835524
 20
327.829245423
 10
-9549.18859159
 20
329.153667188
 10
-9700.69882799
 20
330.478083664
 10
-9852.20906443
 20
331.802495001
 10
-10003.7193009
 20
333.126901344
 10
-10155.2295375
 20
334.451302835
 10
-10306.739774
 20
335.775699607
 10
-10458.2500107
 20
337.100091792
 10
-10609.7602473
 20
338.424479513
 10
-10761.270484
 20
339.748862893
 10
-10912.7807208
 20
341.073242047
 10
-11064.2909575
 20
342.397617087
 10
-11215.8011944
 20
343.721988123
 10
-11367.3114312
 20
345.046355259
 10
-11518.8216681
 20
346.370718596
 10
-11670.331905
 20
347.695078231
 10
-11821.842142
 20
349.019434259
 10
-11973.352379
 20
350.343786771
 10
-12124.862616
 20
351.668135854
 10
-12276.372853
 20
352.992481595
 10
-12427.8830901
 20
354.316824075
 10
-12579.3933272
 20
355.641163374
 10
-12730.9035644
 20
356.965499569
 10
-12882.4138015
 20
358.289832734
 10
-13033.9240387
 20
359.614162943
 10
-13185.434276
 20
360.938490265
 10
-13336.9445132
 20
362.262814768
 10
-13488.4547505
 20
363.587136517
 10
-13639.9649878
 20
364.911455576
 10
-13791.4752251
 20
366.235772007
 10
-13942.9854624
 20
367.56008587
 10
-14094.4956998
 20
368.884397222
 10
-14246.0059372
 20
370.208706121
 10
-14397.5161746
 20
371.53301262
 10
-14549.026412
 20
372.857316773
 10
-14700.5366495
 20
374.181618632
 10
-14852.046887
 20
375.505918245
 10
-15003.5571245
 20
376.830215662
 10
-15155.067362
 20
378.154510931
 10
-15306.5775995
 20
379.478804096
 10
-15458.0878371
 20
380.803095202
 10
-15609.5980747
 20
382.127384293
 10
-15761.1083123
 20
383.451671411
 10
-15912.6185499
 20
384.775956596
 10
-16064.1287875
 20
386.100239888
 10
-16215.6390251
 20
387.424521327
 10
-16367.1492628
 20
388.748800949
 10
-16518.6595005
 20
390.073078792
 10
-16670.1697382
 20
391.39735489
 10
-16821.6799759
 20
392.72162928
 10
-16973.1902136
 20
394.045901994
 10
-17124.7004514
 20
395.370173066
 10
-17276.2106891
 20
396.694442527
 10
-17427.7209269
 20
398.018710409
 10
-17579.2311647
 20
399.342976742
 10
-17730.7414025
 20
400.667241557
 10
-17882.2516403
 20
401.991504881
 10
-18033.7618781
 20
403.315766743
 10
-18185.272116
 20
404.64002717
 10
-18336.7823538
 20
405.96428619
 10
-18488.2925917
 20
407.288543828
 10
-18639.8028296
 20
408.612800111
 10
-18791.3130674
 20
409.937055061
 10
-18942.8233053
 20
411.261308705
 10
-19094.3335433
 20
412.585561066
 10
-19245.8437812
 20
413.909812166
 10
-19397.3540191
 20
415.234062029
 10
-19548.8642571
 20
416.558310676
 10
-19700.374495
 20
417.882558129
  0
LWPOLYLINE
  5
31c
330
1F
100
AcDbEntity
  8
poxpoy_beam_width
100
AcDbPolyline
 90
100
 70
0
43
0.0
 10
-4700.91932265
 20
297.698228516
 10
-4852.42652727
 20
299.176386603
 10
-5003.93373175
 20
300.654560169
 10
-5155.4409361
 20
302.132748589
 10
-5306.94814031
 20
303.610951268
 10
-5458.45534439
 20
305.089167647
 10
-5609.96254835
 20
306.567397191
 10
-5761.4697522
 20
308.045639396
 10
-5912.97695593
 20
309.523893782
 10
-6064.48415955
 20
311.002159893
 10
-6215.99136307
 20
312.480437294
 10
-6367.49856649
 20
313.958725574
 10
-6519.00576981
 20
315.437024339
 10
-6670.51297304
 20
316.915333216
 10
-6822.02017618
 20
318.393651847
 10
-6973.52737923
 20
319.871979893
 10
-7125.03458219
 20
321.350317029
 10
-7276.54178508
 20
322.828662946
 10
-7428.04898789
 20
324.307017347
 10
-7579.55619062
 20
325.78537995
 10
-7731.06339327
 20
327.263750485
 10
-7882.57059586
 20
328.742128692
 10
-8034.07779838
 20
330.220514324
 10
-8185.58500083
 20
331.698907144
 10
-8337.09220322
 20
333.177306926
 10
-8488.59940554
 20
334.655713451
 10
-8640.10660781
 20
336.13412651
 10
-8791.61381001
 20
337.612545904
 10
-8943.12101216
 20
339.090971441
 10
-9094.62821425
 20
340.569402936
 10
-9246.13541629
 20
342.047840212
 10
-9397.64261828
 20
343.526283098
 10
-9549.14982022
 20
345.004731432
 10
-9700.65702211
 20
346.483185056
 10
-9852.16422395
 20
347.961643818
 10
-10003.6714257
 20
349.440107573
 10
-10155.1786275
 20
350.918576182
 10
-10306.6858292
 20
352.397049508
 10
-10458.1930309
 20
353.875527422
 10
-10609.7002325
 20
355.354009798
 10
-10761.2074341
 20
356.832496517
 10
-10912.7146356
 20
358.310987461
 10
-11064.2218371
 20
359.789482518
 10
-11215.7290386
 20
361.267981579
 10
-11367.23624
 20
362.746484541
 10
-11518.7434414
 20
364.224991301
 10
-11670.2506428
 20
365.703501763
 10
-11821.7578441
 20
367.182015832
 10
-11973.2650454
 20
368.660533418
 10
-12124.7722467
 20
370.139054431
 10
-12276.2794479
 20
371.617578787
 10
-12427.7866491
 20
373.096106403
 10
-12579.2938503
 20
374.574637201
 10
-12730.8010514
 20
376.053171102
 10
-12882.3082526
 20
377.531708033
 10
-13033.8154536
 20
379.01024792
 10
-13185.3226547
 20
380.488790694
 10
-13336.8298558
 20
381.967336288
 10
-13488.3370568
 20
383.445884634
 10
-13639.8442578
 20
384.924435671
 10
-13791.3514587
 20
386.402989336
 10
-13942.8586597
 20
387.881545568
 10
-14094.3658606
 20
389.360104311
 10
-14245.8730615
 20
390.838665508
 10
-14397.3802623
 20
392.317229104
 10
-14548.8874632
 20
393.795795046
 10
-14700.394664
 20
395.274363283
 10
-14851.9018648
 20
396.752933765
 10
-15003.4090656
 20
398.231506443
 10
-15154.9162664
 20
399.710081269
 10
-15306.4234671
 20
401.188658199
 10
-15457.9306679
 20
402.667237188
 10
-15609.4378686
 20
404.145818192
 10
-15760.9450693
 20
405.624401169
 10
-15912.4522699
 20
407.102986079
 10
-16063.9594706
 20
408.581572881
 10
-16215.4666712
 20
410.060161537
 10
-16366.9738719
 20
411.53875201
 10
-16518.4810725
 20
413.017344261
 10
-16669.9882731
 20
414.495938257
 10
-16821.4954736
 20
415.974533962
 10
-16973.0026742
 20
417.453131343
 10
-17124.5098747
 20
418.931730365
 10
-17276.0170753
 20
420.410330998
 10
-17427.5242758
 20
421.888933211
 10
-17579.0314763
 20
423.367536972
 10
-17730.5386768
 20
424.846142252
 10
-17882.0458772
 20
426.324749022
 10
-18033.5530777
 20
427.803357254
 10
-18185.0602781
 20
429.281966921
 10
-18336.5674786
 20
430.760577995
 10
-18488.074679
 20
432.239190451
 10
-18639.5818794
 20
433.717804263
 10
-18791.0890798
 20
435.196419406
 10
-18942.5962802
 20
436.675035856
 10
-19094.1034806
 20
438.153653589
 10
-19245.6106809
 20
439.632272583
 10
-19397.1178813
 20
441.110892814
 10
-19548.6250816
 20
442.589514261
 10
-19700.1322819
 20
444.068136901
  0
LWPOLYLINE
  5
31d
330
1F
100
AcDbEntity
  8
poxpoy_beam_width
100
AcDbPolyline
 90
100
 70
0
43
0.0
 10
-4.24860104368
 20
-15693.3544444
 10
-1.82119995827
 20
-15581.1374641
 10
0.606201096798
 20
-15468.9204838
 10
3.03360212068
 20
-15356.7035035
 10
5.46100311252
 20
-15244.4865232
 10
7.88840407141
 20
-15132.2695429
 10
10.3158049964
 20
-15020.0525626
 10
12.7432058866
 20
-14907.8355823
 10
15.170606741
 20
-14795.618602
 10
17.5980075584
 20
-14683.4016217
 10
20.0254083379
 20
-14571.1846414
 10
22.4528090783
 20
-14458.9676611
 10
24.8802097785
 20
-14346.7506807
 10
27.3076104371
 20
-14234.5337004
 10
29.735011053
 20
-14122.3167201
 10
32.1624116249
 20
-14010.0997398
 10
34.5898121513
 20
-13897.8827595
 10
37.0172126309
 20
-13785.6657792
 10
39.4446130621
 20
-13673.4487989
 10
41.8720134434
 20
-13561.2318186
 10
44.2994137732
 20
-13449.0148382
 10
46.7268140497
 20
-13336.7978579
 10
49.1542142712
 20
-13224.5808776
 10
51.5816144359
 20
-13112.3638973
 10
54.0090145418
 20
-13000.146917
 10
56.4364145869
 20
-12887.9299366
 10
58.8638145691
 20
-12775.7129563
 10
61.2912144861
 20
-12663.495976
 10
63.7186143357
 20
-12551.2789957
 10
66.1460141155
 20
-12439.0620154
 10
68.5734138228
 20
-12326.845035
 10
71.0008134549
 20
-12214.6280547
 10
73.4282130092
 20
-12102.4110744
 10
75.8556124826
 20
-11990.194094
 10
78.2830118721
 20
-11877.9771137
 10
80.7104111743
 20
-11765.7601334
 10
83.1378103859
 20
-11653.543153
 10
85.5652095032
 20
-11541.3261727
 10
87.9926085225
 20
-11429.1091924
 10
90.4200074396
 20
-11316.892212
 10
92.8474062504
 20
-11204.6752317
 10
95.2748049505
 20
-11092.4582513
 10
97.7022035349
 20
-10980.241271
 10
100.129601999
 20
-10868.0242906
 10
102.557000337
 20
-10755.8073103
 10
104.984398544
 20
-10643.5903299
 10
107.411796613
 20
-10531.3733496
 10
109.839194538
 20
-10419.1563692
 10
112.266592313
 20
-10306.9393888
 10
114.693989931
 20
-10194.7224085
 10
117.121387383
 20
-10082.5054281
 10
119.548784662
 20
-9970.28844772
 10
121.976181759
 20
-9858.07146735
 10
124.403578666
 20
-9745.85448697
 10
126.830975371
 20
-9633.63750658
 10
129.258371864
 20
-9521.4205262
 10
131.685768135
 20
-9409.2035458
 10
134.113164171
 20
-9296.98656541
 10
136.54055996
 20
-9184.76958501
 10
138.967955486
 20
-9072.5526046
 10
141.395350736
 20
-8960.33562419
 10
143.822745693
 20
-8848.11864377
 10
146.250140339
 20
-8735.90166335
 10
148.677534656
 20
-8623.68468292
 10
151.104928623
 20
-8511.46770249
 10
153.532322218
 20
-8399.25072205
 10
155.959715416
 20
-8287.0337416
 10
158.387108192
 20
-8174.81676114
 10
160.814500517
 20
-8062.59978068
 10
163.241892359
 20
-7950.3828002
 10
165.669283685
 20
-7838.16581972
 10
168.096674457
 20
-7725.94883922
 10
170.524064633
 20
-7613.73185872
 10
172.951454167
 20
-7501.5148782
 10
175.378843011
 20
-7389.29789767
 10
177.806231107
 20
-7277.08091712
 10
180.233618395
 20
-7164.86393656
 10
182.661004804
 20
-7052.64695599
 10
185.08839026
 20
-6940.42997539
 10
187.515774674
 20
-6828.21299478
 10
189.943157951
 20
-6715.99601414
 10
192.370539981
 20
-6603.77903348
 10
194.797920641
 20
-6491.5620528
 10
197.225299791
 20
-6379.34507209
 10
199.652677269
 20
-6267.12809135
 10
202.080052891
 20
-6154.91111057
 10
204.507426447
 20
-6042.69412975
 10
206.93479769
 20
-5930.47714889
 10
209.362166334
 20
-5818.26016798
 10
211.789532044
 20
-5706.04318702
 10
214.216894425
 20
-5593.82620599
 10
216.644253006
 20
-5481.60922489
 10
219.071607225
 20
-5369.39224371
 10
221.498956403
 20
-5257.17526244
 10
223.92629971
 20
-5144.95828106
 10
226.353636127
 20
-5032.74129954
 10
228.780964381
 20
-4920.52431788
 10
231.208282869
 20
-4808.30733603
 10
233.635589535
 20
-4696.09035396
 10
236.062881704
 20
-4583.87337162
  0
LWPOLYLINE
  5
31e
330
1F
100
AcDbEntity
  8
poxpoy_beam_width
100
AcDbPolyline
 90
100
 70
0
43
0.0
 10
68.8871993338
 20
-15694.169682
 10
70.6630376184
 20
-15581.9472125
 10
72.4388759333
 20
-15469.7247431
 10
74.2147142794
 20
-15357.5022736
 10
75.9905526576
 20
-15245.2798042
 10
77.7663910687
 20
-15133.0573347
 10
79.5422295137
 20
-15020.8348653
 10
81.3180679935
 20
-14908.6123958
 10
83.0939065091
 20
-14796.3899263
 10
84.8697450617
 20
-14684.1674569
 10
86.6455836522
 20
-14571.9449874
 10
88.4214222817
 20
-14459.722518
 10
90.1972609516
 20
-14347.5000485
 10
91.9730996629
 20
-14235.2775791
 10
93.748938417
 20
-14123.0551096
 10
95.5247772151
 20
-14010.8326402
 10
97.3006160587
 20
-13898.6101708
 10
99.0764549491
 20
-13786.3877013
 10
100.852293888
 20
-13674.1652319
 10
102.628132877
 20
-13561.9427624
 10
104.403971917
 20
-13449.720293
 10
106.17981101
 20
-13337.4978235
 10
107.955650159
 20
-13225.2753541
 10
109.731489364
 20
-13113.0528846
 10
111.507328628
 20
-13000.8304152
 10
113.283167953
 20
-12888.6079458
 10
115.059007341
 20
-12776.3854763
 10
116.834846794
 20
-12664.1630069
 10
118.610686314
 20
-12551.9405375
 10
120.386525905
 20
-12439.718068
 10
122.162365567
 20
-12327.4955986
 10
123.938205305
 20
-12215.2731292
 10
125.714045121
 20
-12103.0506597
 10
127.489885017
 20
-11990.8281903
 10
129.265724998
 20
-11878.6057209
 10
131.041565066
 20
-11766.3832515
 10
132.817405224
 20
-11654.160782
 10
134.593245477
 20
-11541.9383126
 10
136.369085827
 20
-11429.7158432
 10
138.14492628
 20
-11317.4933738
 10
139.920766839
 20
-11205.2709044
 10
141.696607509
 20
-11093.048435
 10
143.472448295
 20
-10980.8259656
 10
145.248289201
 20
-10868.6034961
 10
147.024130233
 20
-10756.3810267
 10
148.799971396
 20
-10644.1585573
 10
150.575812697
 20
-10531.9360879
 10
152.351654141
 20
-10419.7136185
 10
154.127495736
 20
-10307.4911491
 10
155.903337489
 20
-10195.2686797
 10
157.679179406
 20
-10083.0462104
 10
159.455021497
 20
-9970.82374097
 10
161.23086377
 20
-9858.60127159
 10
163.006706234
 20
-9746.37880221
 10
164.782548899
 20
-9634.15633283
 10
166.558391775
 20
-9521.93386346
 10
168.334234874
 20
-9409.71139409
 10
170.110078208
 20
-9297.48892473
 10
171.885921789
 20
-9185.26645537
 10
173.661765633
 20
-9073.04398602
 10
175.437609753
 20
-8960.82151667
 10
177.213454166
 20
-8848.59904733
 10
178.98929889
 20
-8736.37657799
 10
180.765143943
 20
-8624.15410866
 10
182.540989346
 20
-8511.93163934
 10
184.316835121
 20
-8399.70917002
 10
186.092681292
 20
-8287.48670071
 10
187.868527886
 20
-8175.26423141
 10
189.64437493
 20
-8063.04176212
 10
191.420222458
 20
-7950.81929283
 10
193.196070502
 20
-7838.59682356
 10
194.9719191
 20
-7726.37435429
 10
196.747768293
 20
-7614.15188504
 10
198.523618128
 20
-7501.9294158
 10
200.299468654
 20
-7389.70694657
 10
202.075319927
 20
-7277.48447736
 10
203.851172009
 20
-7165.26200816
 10
205.627024969
 20
-7053.03953898
 10
207.402878883
 20
-6940.81706981
 10
209.178733837
 20
-6828.59460067
 10
210.954589929
 20
-6716.37213154
 10
212.730447268
 20
-6604.14966244
 10
214.506305977
 20
-6491.92719337
 10
216.282166196
 20
-6379.70472432
 10
218.058028086
 20
-6267.48225531
 10
219.833891832
 20
-6155.25978632
 10
221.609757644
 20
-6043.03731738
 10
223.385625768
 20
-5930.81484848
 10
225.161496491
 20
-5818.59237963
 10
226.937370148
 20
-5706.36991084
 10
228.713247133
 20
-5594.14744211
 10
230.489127917
 20
-5481.92497345
 10
232.265013063
 20
-5369.70250487
 10
234.040903249
 20
-5257.48003638
 10
235.816799304
 20
-5145.25756801
 10
237.592702248
 20
-5033.03509976
 10
239.368613352
 20
-4920.81263167
 10
241.14453422
 20
-4808.59016375
 10
242.920466907
 20
-4696.36769607
 10
244.696414086
 20
-4584.14522865
  0
LWPOLYLINE
  5
31f
330
1F
100
AcDbEntity
  8
poxpoy_beam_width
100
AcDbPolyline
 90
10
 70
0
43
0.0
 10
244.696343569
 20
-4584.14522653
 10
190.093831278
 20
-5817.57975554
 10
135.493504266
 20
-7051.01438127
 10
80.8953760679
 20
-8284.44910432
 10
26.2994569274
 20
-9517.88392514
 10
-28.2942462775
 20
-10751.318844
 10
-82.8857300883
 20
-11984.7538612
 10
-137.474994493
 20
-13218.1889765
 10
-192.062042926
 20
-14451.62419
 10
-246.64688224
 20
-15685.0595012
  0
LWPOLYLINE
  5
320
330
1F
100
AcDbEntity
  8
poxpoy_beam_width
100
AcDbPolyline
 90
10
 70
0
43
0.0
 10
236.062793028
 20
-4583.8733687
 10
181.482894187
 20
-5817.29664739
 10
126.900810108
 20
-7050.71982937
 10
72.3165272585
 20
-8284.14291403
 10
17.7300353945
 20
-9517.56590092
 10
-36.8586723614
 20
-10750.9887897
 10
-91.4495994674
 20
-11984.4115803
 10
-146.042745936
 20
-13217.8342727
 10
-200.638108332
 20
-14451.256867
 10
-255.235679802
 20
-15684.6793635
  0
ENDSEC
  0
SECTION
  2
OBJECTS
  0
DICTIONARY
  5
C
330
0
100
AcDbDictionary
281
     1
  3
ACAD_GROUP
350
D
  3
ACAD_LAYOUT
350
1A
  3
ACAD_MATERIAL
350
3B
  3
ACAD_MLEADERSTYLE
350
6E
  3
ACAD_MLINESTYLE
350
17
  3
ACAD_PLOTSETTINGS
350
19
  3
ACAD_PLOTSTYLENAME
350
E
  3
ACAD_TABLESTYLE
350
6D
  3
ACAD_VISUALSTYLE
350
2A
  0
SUN
  5
3F
330
29
100
AcDbSun
 90
        1
290
     0
 63
     7
421
 16777215
 40
1.0
291
     1
 91
  2455826
 92
 54000000
292
     0
 70
     2
 71
   256
280
     1
  0
DICTIONARY
  5
D
102
{ACAD_REACTORS
330
C
102
}
330
C
100
AcDbDictionary
281
     1
  0
DICTIONARY
  5
1A
102
{ACAD_REACTORS
330
C
102
}
330
C
100
AcDbDictionary
281
     1
  3
Layout1
350
1E
  3
Layout2
350
26
  3
Model
350
22
  0
DICTIONARY
  5
3B
102
{ACAD_REACTORS
330
C
102
}
330
C
100
AcDbDictionary
281
     1
  3
ByBlock
350
3D
  3
ByLayer
350
3C
  3
Global
350
3E
  0
DICTIONARY
  5
6E
102
{ACAD_REACTORS
330
C
102
}
330
C
100
AcDbDictionary
281
     1
  0
DICTIONARY
  5
17
102
{ACAD_REACTORS
330
C
102
}
330
C
100
AcDbDictionary
281
     1
  3
Standard
350
18
  0
DICTIONARY
  5
19
102
{ACAD_REACTORS
330
C
102
}
330
C
100
AcDbDictionary
281
     1
  0
ACDBDICTIONARYWDFLT
  5
E
102
{ACAD_REACTORS
330
C
102
}
330
C
100
AcDbDictionary
281
     1
  3
Normal
350
F
100
AcDbDictionaryWithDefault
340
F
  0
DICTIONARY
  5
6D
102
{ACAD_REACTORS
330
C
102
}
330
C
100
AcDbDictionary
281
     1
  0
DICTIONARY
  5
2A
102
{ACAD_REACTORS
330
C
102
}
330
C
100
AcDbDictionary
281
     1
  3
2dWireframe
350
2F
  3
3D Hidden
350
31
  3
3dWireframe
350
30
  3
Basic
350
32
  3
Brighten
350
36
  3
ColorChange
350
3A
  3
Conceptual
350
34
  3
Dim
350
35
  3
Facepattern
350
39
  3
Flat
350
2B
  3
FlatWithEdges
350
2C
  3
Gouraud
350
2D
  3
GouraudWithEdges
350
2E
  3
Linepattern
350
38
  3
Realistic
350
33
  3
Thicken
350
37
  0
LAYOUT
  5
1E
102
{ACAD_REACTORS
330
1A
102
}
330
1A
100
AcDbPlotSettings
  1

  2
none_device
  4

  6

 40
0.0
 41
0.0
 42
0.0
 43
0.0
 44
0.0
 45
0.0
 46
0.0
 47
0.0
 48
0.0
 49
0.0
140
0.0
141
0.0
142
1.0
143
1.0
 70
   688
 72
     0
 73
     0
 74
     5
  7

 75
    16
 76
     0
 77
     2
 78
   300
147
1.0
148
0.0
149
0.0
100
AcDbLayout
  1
Layout1
 70
     1
 71
     1
 10
0.0
 20
0.0
 11
420.0
 21
297.0
 12
0.0
 22
0.0
 32
0.0
 14
1.000000000000000E+20
 24
1.000000000000000E+20
 34
1.000000000000000E+20
 15
-1.000000000000000E+20
 25
-1.000000000000000E+20
 35
-1.000000000000000E+20
146
0.0
 13
0.0
 23
0.0
 33
0.0
 16
1.0
 26
0.0
 36
0.0
 17
0.0
 27
1.0
 37
0.0
 76
     0
330
1B
  0
LAYOUT
  5
26
102
{ACAD_REACTORS
330
1A
102
}
330
1A
100
AcDbPlotSettings
  1

  2
none_device
  4

  6

 40
0.0
 41
0.0
 42
0.0
 43
0.0
 44
0.0
 45
0.0
 46
0.0
 47
0.0
 48
0.0
 49
0.0
140
0.0
141
0.0
142
1.0
143
1.0
 70
   688
 72
     0
 73
     0
 74
     5
  7

 75
    16
 76
     0
 77
     2
 78
   300
147
1.0
148
0.0
149
0.0
100
AcDbLayout
  1
Layout2
 70
     1
 71
     2
 10
0.0
 20
0.0
 11
0.0
 21
0.0
 12
0.0
 22
0.0
 32
0.0
 14
0.0
 24
0.0
 34
0.0
 15
0.0
 25
0.0
 35
0.0
146
0.0
 13
0.0
 23
0.0
 33
0.0
 16
1.0
 26
0.0
 36
0.0
 17
0.0
 27
1.0
 37
0.0
 76
     0
330
23
  0
LAYOUT
  5
22
102
{ACAD_REACTORS
330
1A
102
}
330
1A
100
AcDbPlotSettings
  1

  2
none_device
  4

  6

 40
0.0
 41
0.0
 42
0.0
 43
0.0
 44
0.0
 45
0.0
 46
0.0
 47
0.0
 48
0.0
 49
0.0
140
0.0
141
0.0
142
1.0
143
1.0
 70
  1712
 72
     0
 73
     0
 74
     0
  7

 75
     0
 76
     0
 77
     2
 78
   300
147
1.0
148
0.0
149
0.0
100
AcDbLayout
  1
Model
 70
     1
 71
     0
 10
0.0
 20
0.0
 11
420.0
 21
297.0
 12
0.0
 22
0.0
 32
0.0
 14
1.0
 24
0.0
 34
0.0
 15
73.0
 25
41.0
 35
0.0
146
0.0
 13
0.0
 23
0.0
 33
0.0
 16
1.0
 26
0.0
 36
0.0
 17
0.0
 27
1.0
 37
0.0
 76
     0
330
1F
331
29
  0
MATERIAL
  5
3D
102
{ACAD_REACTORS
330
3B
102
}
330
3B
100
AcDbMaterial
  1
ByBlock
 72
     1
 94
      127
  0
MATERIAL
  5
3C
102
{ACAD_REACTORS
330
3B
102
}
330
3B
100
AcDbMaterial
  1
ByLayer
 72
     1
 94
      127
  0
MATERIAL
  5
3E
102
{ACAD_REACTORS
330
3B
102
}
330
3B
100
AcDbMaterial
  1
Global
 72
     1
 94
      127
  0
MLINESTYLE
  5
18
102
{ACAD_REACTORS
330
17
102
}
330
17
100
AcDbMlineStyle
  2
Standard
 70
     0
  3

 62
   256
 51
90.0
 52
90.0
 71
     2
 49
0.5
 62
   256
  6
BYLAYER
 49
-0.5
 62
   256
  6
BYLAYER
  0
ACDBPLACEHOLDER
  5
F
102
{ACAD_REACTORS
330
E
102
}
330
E
  0
VISUALSTYLE
  5
2F
102
{ACAD_REACTORS
330
2A
102
}
330
2A
100
AcDbVisualStyle
  2
2dWireframe
 70
     4
177
     2
291
     0
 71
     0
176
     1
 72
     2
176
     1
 73
     0
176
     1
 90
        0
176
     1
 40
-0.6
176
     1
 41
-30.0
176
     1
 62
     5
 63
     7
421
 16777215
176
     1
 74
     1
176
     1
 91
        4
176
     1
 64
     7
176
     1
 65
   257
176
     1
 75
     1
176
     1
175
     1
176
     1
 42
1.0
176
     1
 92
        0
176
     1
 66
   257
176
     1
 43
1.0
176
     1
 76
     1
176
     1
 77
     6
176
     1
 78
     2
176
     1
 67
     7
176
     1
 79
     5
176
     1
170
     0
176
     1
171
     0
176
     1
290
     0
176
     1
 93
        1
176
     1
 44
0.0
176
     1
173
     0
176
     1
  0
VISUALSTYLE
  5
31
102
{ACAD_REACTORS
330
2A
102
}
330
2A
100
AcDbVisualStyle
  2
3D Hidden
 70
     6
177
     2
291
     0
 71
     1
176
     1
 72
     2
176
     1
 73
     2
176
     1
 90
        0
176
     1
 40
-0.6
176
     1
 41
-30.0
176
     1
 62
     5
 63
     7
421
 16777215
176
     1
 74
     2
176
     1
 91
        2
176
     1
 64
     7
176
     1
 65
   257
176
     1
 75
     2
176
     1
175
     1
176
     1
 42
40.0
176
     1
 92
        0
176
     1
 66
   257
176
     1
 43
1.0
176
     1
 76
     1
176
     1
 77
     6
176
     1
 78
     2
176
     1
 67
     7
176
     1
 79
     3
176
     1
170
     0
176
     1
171
     0
176
     1
290
     0
176
     1
 93
        1
176
     1
 44
0.0
176
     1
173
     0
176
     1
  0
VISUALSTYLE
  5
30
102
{ACAD_REACTORS
330
2A
102
}
330
2A
100
AcDbVisualStyle
  2
3dWireframe
 70
     5
177
     2
291
     0
 71
     0
176
     1
 72
     2
176
     1
 73
     0
176
     1
 90
        0
176
     1
 40
-0.6
176
     1
 41
-30.0
176
     1
 62
     5
 63
     7
421
 16777215
176
     1
 74
     1
176
     1
 91
        4
176
     1
 64
     7
176
     1
 65
   257
176
     1
 75
     1
176
     1
175
     1
176
     1
 42
1.0
176
     1
 92
        0
176
     1
 66
   257
176
     1
 43
1.0
176
     1
 76
     1
176
     1
 77
     6
176
     1
 78
     2
176
     1
 67
     7
176
     1
 79
     5
176
     1
170
     0
176
     1
171
     0
176
     1
290
     0
176
     1
 93
        1
176
     1
 44
0.0
176
     1
173
     0
176
     1
  0
VISUALSTYLE
  5
32
102
{ACAD_REACTORS
330
2A
102
}
330
2A
100
AcDbVisualStyle
  2
Basic
 70
     7
177
     2
291
     1
 71
     1
176
     1
 72
     0
176
     1
 73
     1
176
     1
 90
        0
176
     1
 40
-0.6
176
     1
 41
-30.0
176
     1
 62
     5
 63
     7
421
 16777215
176
     1
 74
     0
176
     1
 91
        4
176
     1
 64
     7
176
     1
 65
   257
176
     1
 75
     1
176
     1
175
     1
176
     1
 42
1.0
176
     1
 92
        8
176
     1
 66
     7
176
     1
 43
1.0
176
     1
 76
     1
176
     1
 77
     6
176
     1
 78
     2
176
     1
 67
     7
176
     1
 79
     5
176
     1
170
     0
176
     1
171
     0
176
     1
290
     0
176
     1
 93
        1
176
     1
 44
0.0
176
     1
173
     0
176
     1
  0
VISUALSTYLE
  5
36
102
{ACAD_REACTORS
330
2A
102
}
330
2A
100
AcDbVisualStyle
  2
Brighten
 70
    12
177
     2
291
     1
 71
     2
176
     1
 72
     2
176
     1
 73
     0
176
     1
 90
        0
176
     1
 40
-0.6
176
     1
 41
-30.0
176
     1
 62
     5
 63
     7
421
 16777215
176
     1
 74
     1
176
     1
 91
        4
176
     1
 64
     7
176
     1
 65
   257
176
     1
 75
     1
176
     1
175
     1
176
     1
 42
1.0
176
     1
 92
        8
176
     1
 66
     7
176
     1
 43
1.0
176
     1
 76
     1
176
     1
 77
     6
176
     1
 78
     2
176
     1
 67
     7
176
     1
 79
     5
176
     1
170
     0
176
     1
171
     0
176
     1
290
     0
176
     1
 93
        1
176
     1
 44
50.0
176
     1
173
     0
176
     1
  0
VISUALSTYLE
  5
3A
102
{ACAD_REACTORS
330
2A
102
}
330
2A
100
AcDbVisualStyle
  2
ColorChange
 70
    16
177
     2
291
     1
 71
     2
176
     1
 72
     2
176
     1
 73
     3
176
     1
 90
        0
176
     1
 40
-0.6
176
     1
 41
-30.0
176
     1
 62
     5
 63
     8
421
  8421504
176
     1
 74
     1
176
     1
 91
        4
176
     1
 64
     7
176
     1
 65
   257
176
     1
 75
     1
176
     1
175
     1
176
     1
 42
1.0
176
     1
 92
        8
176
     1
 66
     8
424
  8421504
176
     1
 43
1.0
176
     1
 76
     1
176
     1
 77
     6
176
     1
 78
     2
176
     1
 67
     7
176
     1
 79
     5
176
     1
170
     0
176
     1
171
     0
176
     1
290
     0
176
     1
 93
        1
176
     1
 44
0.0
176
     1
173
     0
176
     1
  0
VISUALSTYLE
  5
34
102
{ACAD_REACTORS
330
2A
102
}
330
2A
100
AcDbVisualStyle
  2
Conceptual
 70
     9
177
     2
291
     0
 71
     3
176
     1
 72
     2
176
     1
 73
     0
176
     1
 90
        0
176
     1
 40
-0.6
176
     1
 41
-30.0
176
     1
 62
     5
 63
     7
421
 16777215
176
     1
 74
     2
176
     1
 91
        2
176
     1
 64
     7
176
     1
 65
   257
176
     1
 75
     1
176
     1
175
     1
176
     1
 42
40.0
176
     1
 92
        8
176
     1
 66
     7
176
     1
 43
1.0
176
     1
 76
     1
176
     1
 77
     6
176
     1
 78
     2
176
     1
 67
     7
176
     1
 79
     3
176
     1
170
     0
176
     1
171
     0
176
     1
290
     0
176
     1
 93
        1
176
     1
 44
0.0
176
     1
173
     0
176
     1
  0
VISUALSTYLE
  5
35
102
{ACAD_REACTORS
330
2A
102
}
330
2A
100
AcDbVisualStyle
  2
Dim
 70
    11
177
     2
291
     1
 71
     2
176
     1
 72
     2
176
     1
 73
     0
176
     1
 90
        0
176
     1
 40
-0.6
176
     1
 41
-30.0
176
     1
 62
     5
 63
     7
421
 16777215
176
     1
 74
     1
176
     1
 91
        4
176
     1
 64
     7
176
     1
 65
   257
176
     1
 75
     1
176
     1
175
     1
176
     1
 42
1.0
176
     1
 92
        8
176
     1
 66
     7
176
     1
 43
1.0
176
     1
 76
     1
176
     1
 77
     6
176
     1
 78
     2
176
     1
 67
     7
176
     1
 79
     5
176
     1
170
     0
176
     1
171
     0
176
     1
290
     0
176
     1
 93
        1
176
     1
 44
-50.0
176
     1
173
     0
176
     1
  0
VISUALSTYLE
  5
39
102
{ACAD_REACTORS
330
2A
102
}
330
2A
100
AcDbVisualStyle
  2
Facepattern
 70
    15
177
     2
291
     1
 71
     2
176
     1
 72
     2
176
     1
 73
     0
176
     1
 90
        0
176
     1
 40
-0.6
176
     1
 41
-30.0
176
     1
 62
     5
 63
     7
421
 16777215
176
     1
 74
     1
176
     1
 91
        4
176
     1
 64
     7
176
     1
 65
   257
176
     1
 75
     1
176
     1
175
     1
176
     1
 42
1.0
176
     1
 92
        8
176
     1
 66
     7
176
     1
 43
1.0
176
     1
 76
     1
176
     1
 77
     6
176
     1
 78
     2
176
     1
 67
     7
176
     1
 79
     5
176
     1
170
     0
176
     1
171
     0
176
     1
290
     0
176
     1
 93
        1
176
     1
 44
0.0
176
     1
173
     0
176
     1
  0
VISUALSTYLE
  5
2B
102
{ACAD_REACTORS
330
2A
102
}
330
2A
100
AcDbVisualStyle
  2
Flat
 70
     0
177
     2
291
     1
 71
     2
176
     1
 72
     1
176
     1
 73
     1
176
     1
 90
        2
176
     1
 40
-0.6
176
     1
 41
30.0
176
     1
 62
     5
 63
     7
421
 16777215
176
     1
 74
     0
176
     1
 91
        4
176
     1
 64
     7
176
     1
 65
   257
176
     1
 75
     1
176
     1
175
     1
176
     1
 42
1.0
176
     1
 92
        8
176
     1
 66
     7
176
     1
 43
1.0
176
     1
 76
     1
176
     1
 77
     6
176
     1
 78
     2
176
     1
 67
     7
176
     1
 79
     5
176
     1
170
     0
176
     1
171
     0
176
     1
290
     0
176
     1
 93
       13
176
     1
 44
0.0
176
     1
173
     0
176
     1
  0
VISUALSTYLE
  5
2C
102
{ACAD_REACTORS
330
2A
102
}
330
2A
100
AcDbVisualStyle
  2
FlatWithEdges
 70
     1
177
     2
291
     1
 71
     2
176
     1
 72
     1
176
     1
 73
     1
176
     1
 90
        2
176
     1
 40
-0.6
176
     1
 41
30.0
176
     1
 62
     5
 63
     7
421
 16777215
176
     1
 74
     1
176
     1
 91
        4
176
     1
 64
     7
176
     1
 65
   257
176
     1
 75
     1
176
     1
175
     1
176
     1
 42
1.0
176
     1
 92
        0
176
     1
 66
   257
176
     1
 43
1.0
176
     1
 76
     1
176
     1
 77
     6
176
     1
 78
     2
176
     1
 67
     7
176
     1
 79
     5
176
     1
170
     0
176
     1
171
     0
176
     1
290
     0
176
     1
 93
       13
176
     1
 44
0.0
176
     1
173
     0
176
     1
  0
VISUALSTYLE
  5
2D
102
{ACAD_REACTORS
330
2A
102
}
330
2A
100
AcDbVisualStyle
  2
Gouraud
 70
     2
177
     2
291
     1
 71
     2
176
     1
 72
     2
176
     1
 73
     1
176
     1
 90
        2
176
     1
 40
-0.6
176
     1
 41
30.0
176
     1
 62
     5
 63
     7
421
 16777215
176
     1
 74
     0
176
     1
 91
        4
176
     1
 64
     7
176
     1
 65
   257
176
     1
 75
     1
176
     1
175
     1
176
     1
 42
1.0
176
     1
 92
        0
176
     1
 66
     7
176
     1
 43
1.0
176
     1
 76
     1
176
     1
 77
     6
176
     1
 78
     2
176
     1
 67
     7
176
     1
 79
     5
176
     1
170
     0
176
     1
171
     0
176
     1
290
     0
176
     1
 93
       13
176
     1
 44
0.0
176
     1
173
     0
176
     1
  0
VISUALSTYLE
  5
2E
102
{ACAD_REACTORS
330
2A
102
}
330
2A
100
AcDbVisualStyle
  2
GouraudWithEdges
 70
     3
177
     2
291
     1
 71
     2
176
     1
 72
     2
176
     1
 73
     1
176
     1
 90
        2
176
     1
 40
-0.6
176
     1
 41
30.0
176
     1
 62
     5
 63
     7
421
 16777215
176
     1
 74
     1
176
     1
 91
        4
176
     1
 64
     7
176
     1
 65
   257
176
     1
 75
     1
176
     1
175
     1
176
     1
 42
1.0
176
     1
 92
        0
176
     1
 66
   257
176
     1
 43
1.0
176
     1
 76
     1
176
     1
 77
     6
176
     1
 78
     2
176
     1
 67
     7
176
     1
 79
     5
176
     1
170
     0
176
     1
171
     0
176
     1
290
     0
176
     1
 93
       13
176
     1
 44
0.0
176
     1
173
     0
176
     1
  0
VISUALSTYLE
  5
38
102
{ACAD_REACTORS
330
2A
102
}
330
2A
100
AcDbVisualStyle
  2
Linepattern
 70
    14
177
     2
291
     1
 71
     2
176
     1
 72
     2
176
     1
 73
     0
176
     1
 90
        0
176
     1
 40
-0.6
176
     1
 41
-30.0
176
     1
 62
     5
 63
     7
421
 16777215
176
     1
 74
     1
176
     1
 91
        4
176
     1
 64
     7
176
     1
 65
   257
176
     1
 75
     7
176
     1
175
     7
176
     1
 42
1.0
176
     1
 92
        8
176
     1
 66
     7
176
     1
 43
1.0
176
     1
 76
     1
176
     1
 77
     6
176
     1
 78
     2
176
     1
 67
     7
176
     1
 79
     5
176
     1
170
     0
176
     1
171
     0
176
     1
290
     0
176
     1
 93
        1
176
     1
 44
0.0
176
     1
173
     0
176
     1
  0
VISUALSTYLE
  5
33
102
{ACAD_REACTORS
330
2A
102
}
330
2A
100
AcDbVisualStyle
  2
Realistic
 70
     8
177
     2
291
     0
 71
     2
176
     1
 72
     2
176
     1
 73
     0
176
     1
 90
        0
176
     1
 40
-0.6
176
     1
 41
-30.0
176
     1
 62
     5
 63
     7
421
 16777215
176
     1
 74
     1
176
     1
 91
        0
176
     1
 64
     7
176
     1
 65
   257
176
     1
 75
     1
176
     1
175
     1
176
     1
 42
1.0
176
     1
 92
        8
176
     1
 66
     8
424
  7895160
176
     1
 43
1.0
176
     1
 76
     1
176
     1
 77
     6
176
     1
 78
     2
176
     1
 67
     7
176
     1
 79
     5
176
     1
170
     0
176
     1
171
     0
176
     1
290
     0
176
     1
 93
       13
176
     1
 44
0.0
176
     1
173
     0
176
     1
  0
VISUALSTYLE
  5
37
102
{ACAD_REACTORS
330
2A
102
}
330
2A
100
AcDbVisualStyle
  2
Thicken
 70
    13
177
     2
291
     1
 71
     2
176
     1
 72
     2
176
     1
 73
     0
176
     1
 90
        0
176
     1
 40
-0.6
176
     1
 41
-30.0
176
     1
 62
     5
 63
     7
421
 16777215
176
     1
 74
     1
176
     1
 91
        4
176
     1
 64
     7
176
     1
 65
   257
176
     1
 75
     1
176
     1
175
     1
176
     1
 42
1.0
176
     1
 92
       12
176
     1
 66
     7
176
     1
 43
1.0
176
     1
 76
     1
176
     1
 77
     6
176
     1
 78
     2
176
     1
 67
     7
176
     1
 79
     5
176
     1
170
     0
176
     1
171
     0
176
     1
290
     0
176
     1
 93
        1
176
     1
 44
0.0
176
     1
173
     0
176
     1
  0
ENDSEC
0
EOF
