0
SECTION
2
HEADER
9
$ACADVER
1
AC1006
9
$INSBASE
10
0.0
20
0.0
30
0.0
9
$EXTMIN
10
0.0
20
0.0
9
$EXTMAX
10
0.0
20
0.0
0
ENDSEC
0
SECTION
2
TABLES
0
TABLE
2
LTYPE
70
1
0
LTYPE
2
CONTINUOUS
70
64
3
Solid line
72
65
73
0
40
0.0
0
ENDTAB
0
TABLE
2
LAYER
70
7
0
LAYER
2
PYDXF
70
64
62
7
6
continuous
0
LAYER
2
MAIN_BEAM
70
64
62
1
6
continuous
0
LAYER
2
MAIN_BEAM_WIDTH
70
64
62
2
6
continuous
0
LAYER
2
AUX_BEAM
70
64
62
3
6
continuous
0
LAYER
2
AUX_BEAM_WIDTH
70
64
62
4
6
continuous
0
LAYER
2
GREEN_BEAM
70
64
62
5
6
continuous
0
LAYER
2
GREEN_BEAM_WIDTH
70
64
62
6
6
continuous
0
ENDTAB
0
TABLE
2
STYLE
70
1
0
STYLE
2
STANDARD
70
0
40
0
41
40
50
50
71
0
42
1
3
ARIAL.TTF
4

0
ENDTAB
0
TABLE
2
VIEW
70
0
0
ENDTAB
0
ENDSEC
0
SECTION
2
BLOCKS
0
ENDSEC
0
SECTION
2
ENTITIES
0
LINE
8
main_beam
10
4.65513462302e-05
20
4.65513462294e-05
11
0.131964939811
21
-0.0371062484662
0
LWPOLYLINE
8
main_beam_width
70
0
90
10
10
0.0104318393385
20
0.0369215772552
10
0.0250894381182
20
0.0327934886053
10
0.039747036898
20
0.0286653999556
10
0.0544046356778
20
0.0245373113062
10
0.0690622344577
20
0.020409222657
10
0.0837198332377
20
0.016281134008
10
0.0983774320177
20
0.0121530453592
10
0.113035030798
20
0.00802495671072
10
0.127692629578
20
0.00389686806243
10
0.142350228358
20
-0.000231220585616
0
LWPOLYLINE
8
main_beam_width
70
0
90
10
10
-0.010338736646
20
-0.0368284745627
10
0.00431886201084
20
-0.0409565636489
10
0.0189764606676
20
-0.0450846527354
10
0.0336340593243
20
-0.049212741822
10
0.048291657981
20
-0.0533408309089
10
0.0629492566375
20
-0.057468919996
10
0.0776068552941
20
-0.0615970090834
10
0.0922644539505
20
-0.065725098171
10
0.106922052607
20
-0.0698531872588
10
0.121579651263
20
-0.0739812763469
0
LINE
8
main_beam
10
0.0374789572554
20
-0.132864634051
11
-0.0804171081677
21
-14.8947763733
0
LWPOLYLINE
8
main_beam_width
70
0
90
10
10
0.0715856781614
20
-0.13313702751
10
0.0584861045025
20
-1.7733494429
10
0.0453865386219
20
-3.41356185835
10
0.0322869805196
20
-5.05377427386
10
0.0191874301955
20
-6.69398668944
10
0.00608788764969
20
-8.33419910508
10
-0.00701164711787
20
-9.97441152078
10
-0.0201111741072
20
-11.6146239365
10
-0.0332106933184
20
-13.2548363524
10
-0.0463102047514
20
-14.8950487683
0
LWPOLYLINE
8
main_beam_width
70
0
90
10
10
0.00337223634953
20
-0.132592240592
10
-0.00972731564118
20
-1.77280465615
10
-0.0228268754102
20
-3.41301707165
10
-0.0359264429574
20
-5.05322948709
10
-0.0490260182829
20
-6.69344190247
10
-0.0621256013867
20
-8.33365431778
10
-0.0752251922688
20
-9.97386673304
10
-0.088324790929
20
-11.6140791482
10
-0.101424397367
20
-13.2542915634
10
-0.114524011584
20
-14.8945039784
0
LINE
8
main_beam
10
-17.4598228962
20
0.218856813113
11
-2.70308952781
21
0.257939190521
0
LWPOLYLINE
8
main_beam_width
70
0
90
10
10
-17.4598336181
20
0.222905190786
10
-15.8201965275
20
0.227228907402
10
-14.1805594493
20
0.231557335611
10
-12.5409223838
20
0.235890525014
10
-10.9012853309
20
0.240228508795
10
-9.26164829078
20
0.244571303135
10
-7.62201126339
20
0.248918906926
10
-5.9823742487
20
0.253271301788
10
-4.3427372466
20
0.257628452395
10
-2.70310025697
20
0.261990307105
0
LWPOLYLINE
8
main_beam_width
70
0
90
10
10
-17.4598121743
20
0.21480843544
10
-15.8201751831
20
0.219169691581
10
-14.1805381794
20
0.223526236129
10
-12.5409011631
20
0.227878019484
10
-10.9012641341
20
0.23222500846
10
-9.26162709232
20
0.236567186877
10
-7.62199003784
20
0.240904555843
10
-5.98235297066
20
0.24523713374
10
-4.34271589089
20
0.249564955889
10
-2.70307879866
20
0.253888073936
0
LINE
8
main_beam
10
-0.0804171081677
20
-14.8947763733
11
0.280830677304
21
-2.837580488
0
LWPOLYLINE
8
main_beam_width
70
0
90
100
10
-0.11450980071
20
-14.8937549161
10
-0.110557181873
20
-14.7719741564
10
-0.106604563079
20
-14.6501933968
10
-0.102651944331
20
-14.5284126371
10
-0.0986993256291
20
-14.4066318774
10
-0.0947467069752
20
-14.2848511177
10
-0.0907940883705
20
-14.163070358
10
-0.0868414698164
20
-14.0412895984
10
-0.0828888513143
20
-13.9195088387
10
-0.0789362328658
20
-13.797728079
10
-0.0749836144724
20
-13.6759473193
10
-0.0710309961358
20
-13.5541665596
10
-0.0670783778576
20
-13.4323857999
10
-0.0631257596397
20
-13.3106050402
10
-0.0591731414838
20
-13.1888242805
10
-0.0552205233919
20
-13.0670435208
10
-0.051267905366
20
-12.9452627611
10
-0.0473152874082
20
-12.8234820014
10
-0.0433626695205
20
-12.7017012417
10
-0.0394100517053
20
-12.579920482
10
-0.035457433965
20
-12.4581397223
10
-0.0315048163019
20
-12.3363589626
10
-0.0275521987187
20
-12.2145782029
10
-0.0235995812181
20
-12.0927974431
10
-0.0196469638027
20
-11.9710166834
10
-0.0156943464757
20
-11.8492359237
10
-0.01174172924
20
-11.727455164
10
-0.00778911209893
20
-11.6056744042
10
-0.00383649505574
20
-11.4838936445
10
0.000116121885985
20
-11.3621128848
10
0.00406873872255
20
-11.240332125
10
0.00802135545008
20
-11.1185513653
10
0.0119739720645
20
-10.9967706056
10
0.0159265885615
20
-10.8749898458
10
0.0198792049366
20
-10.7532090861
10
0.0238318211851
20
-10.6314283263
10
0.027784437302
20
-10.5096475666
10
0.0317370532821
20
-10.3878668068
10
0.0356896691197
20
-10.266086047
10
0.0396422848092
20
-10.1443052873
10
0.0435949003443
20
-10.0225245275
10
0.0475475157185
20
-9.9007437677
10
0.0515001309251
20
-9.77896300791
10
0.0554527459566
20
-9.65718224812
10
0.0594053608054
20
-9.53540148832
10
0.0633579754635
20
-9.41362072852
10
0.0673105899221
20
-9.29183996871
10
0.071263204172
20
-9.1700592089
10
0.0752158182036
20
-9.04827844908
10
0.0791684320065
20
-8.92649768925
10
0.0831210455696
20
-8.80471692941
10
0.0870736588813
20
-8.68293616957
10
0.091026271929
20
-8.56115540972
10
0.0949788846994
20
-8.43937464986
10
0.0989314971781
20
-8.31759389
10
0.10288410935
20
-8.19581313012
10
0.106836721199
20
-8.07403237023
10
0.110789332706
20
-7.95225161034
10
0.114741943854
20
-7.83047085043
10
0.118694554623
20
-7.70869009051
10
0.122647164989
20
-7.58690933058
10
0.126599774931
20
-7.46512857064
10
0.130552384421
20
-7.34334781068
10
0.134504993434
20
-7.22156705071
10
0.138457601939
20
-7.09978629072
10
0.142410209905
20
-6.97800553072
10
0.146362817295
20
-6.8562247707
10
0.150315424072
20
-6.73444401066
10
0.154268030195
20
-6.6126632506
10
0.158220635618
20
-6.49088249052
10
0.162173240291
20
-6.36910173042
10
0.166125844161
20
-6.2473209703
10
0.170078447166
20
-6.12554021015
10
0.174031049242
20
-6.00375944997
10
0.177983650314
20
-5.88197868976
10
0.181936250304
20
-5.76019792952
10
0.18588884912
20
-5.63841716924
10
0.189841446663
20
-5.51663640892
10
0.193794042822
20
-5.39485564857
10
0.197746637472
20
-5.27307488817
10
0.201699230473
20
-5.15129412772
10
0.205651821667
20
-5.02951336721
10
0.209604410874
20
-4.90773260665
10
0.21355699789
20
-4.78595184601
10
0.217509582485
20
-4.66417108531
10
0.221462164391
20
-4.54239032453
10
0.225414743301
20
-4.42060956366
10
0.22936731886
20
-4.29882880268
10
0.233319890654
20
-4.1770480416
10
0.237272458198
20
-4.05526728038
10
0.241225020919
20
-3.93348651902
10
0.245177578138
20
-3.8117057575
10
0.249130129041
20
-3.68992499579
10
0.253082672645
20
-3.56814423386
10
0.257035207753
20
-3.44636347167
10
0.26098773289
20
-3.32458270919
10
0.264940246219
20
-3.20280194635
10
0.268892745423
20
-3.08102118309
10
0.272845227536
20
-2.95924041931
10
0.276797688698
20
-2.83745965491
0
LWPOLYLINE
8
main_beam_width
70
0
90
100
10
-0.046324415625
20
-14.8957978305
10
-0.0429790994026
20
-14.7739988754
10
-0.0396337831361
20
-14.6521999202
10
-0.0362884668244
20
-14.530400965
10
-0.0329431504661
20
-14.4086020098
10
-0.0295978340599
20
-14.2868030547
10
-0.0262525176046
20
-14.1650040995
10
-0.0229072010987
20
-14.0432051443
10
-0.0195618845407
20
-13.9214061892
10
-0.0162165679292
20
-13.799607234
10
-0.0128712512625
20
-13.6778082788
10
-0.00952593453911
20
-13.5560093237
10
-0.00618061775724
20
-13.4342103685
10
-0.00283530091513
20
-13.3124114133
10
0.000510015989037
20
-13.1906124582
10
0.00385533295719
20
-13.068813503
10
0.00720064999131
20
-12.9470145479
10
0.0105459670935
20
-12.8252155927
10
0.0138912842659
20
-12.7034166376
10
0.0172366015107
20
-12.5816176824
10
0.0205819188304
20
-12.4598187273
10
0.0239272362274
20
-12.3380197721
10
0.0272725537043
20
-12.216220817
10
0.0306178712636
20
-12.0944218619
10
0.0339631889084
20
-11.9726229067
10
0.0373085066414
20
-11.8508239516
10
0.0406538244657
20
-11.7290249965
10
0.0439991423847
20
-11.6072260413
10
0.0473444604015
20
-11.4854270862
10
0.0506897785198
20
-11.3636281311
10
0.0540350967433
20
-11.241829176
10
0.0573804150758
20
-11.1200302209
10
0.0607257335215
20
-10.9982312657
10
0.0640710520845
20
-10.8764323106
10
0.0674163707694
20
-10.7546333555
10
0.0707616895809
20
-10.6328344004
10
0.0741070085241
20
-10.5110354453
10
0.0774523276041
20
-10.3892364902
10
0.0807976468265
20
-10.2674375351
10
0.084142966197
20
-10.1456385801
10
0.087488285722
20
-10.023839625
10
0.0908336054078
20
-9.90204066991
10
0.0941789252613
20
-9.78024171484
10
0.0975242452898
20
-9.65844275978
10
0.100869565501
20
-9.53664380472
10
0.104214885903
20
-9.41484484966
10
0.107560206504
20
-9.29304589462
10
0.110905527315
20
-9.17124693958
10
0.114250848343
20
-9.04944798454
10
0.1175961696
20
-8.92764902951
10
0.120941491097
20
-8.80585007449
10
0.124286812845
20
-8.68405111948
10
0.127632134858
20
-8.56225216448
10
0.130977457147
20
-8.44045320948
10
0.134322779729
20
-8.31865425449
10
0.137668102617
20
-8.19685529951
10
0.141013425828
20
-8.07505634454
10
0.144358749381
20
-7.95325738959
10
0.147704073293
20
-7.83145843464
10
0.151049397584
20
-7.7096594797
10
0.154394722278
20
-7.58786052478
10
0.157740047397
20
-7.46606156987
10
0.161085372966
20
-7.34426261497
10
0.164430699013
20
-7.22246366008
10
0.167776025568
20
-7.10066470521
10
0.171121352663
20
-6.97886575036
10
0.174466680332
20
-6.85706679553
10
0.177812008615
20
-6.73526784071
10
0.181157337552
20
-6.61346888591
10
0.184502667189
20
-6.49166993114
10
0.187847997576
20
-6.36987097638
10
0.191193328767
20
-6.24807202165
10
0.194538660821
20
-6.12627306695
10
0.197883993806
20
-6.00447411227
10
0.201229327793
20
-5.88267515763
10
0.204574662864
20
-5.76087620301
10
0.207919999108
20
-5.63907724843
10
0.211265336625
20
-5.51727829389
10
0.214610675526
20
-5.39547933939
10
0.217956015936
20
-5.27368038494
10
0.221301357995
20
-5.15188143054
10
0.224646701861
20
-5.03008247619
10
0.227992047714
20
-4.9082835219
10
0.231337395758
20
-4.78648456767
10
0.234682746223
20
-4.66468561352
10
0.238028099377
20
-4.54288665945
10
0.241373455527
20
-4.42108770546
10
0.244718815028
20
-4.29928875158
10
0.248064178294
20
-4.17748979781
10
0.25140954581
20
-4.05569084417
10
0.254754918149
20
-3.93389189068
10
0.25810029599
20
-3.81209293734
10
0.261445680148
20
-3.6902939842
10
0.264791071604
20
-3.56849503128
10
0.268136471556
20
-3.44669607861
10
0.271481881479
20
-3.32489712624
10
0.27482730321
20
-3.20309817422
10
0.278172739066
20
-3.08129922262
10
0.281518192013
20
-2.95950027154
10
0.28486366591
20
-2.83770132109
0
LINE
8
main_beam
10
-0.0804171081677
20
-14.8947763733
11
0.280830677304
21
-2.837580488
0
LWPOLYLINE
8
main_beam_width
70
0
90
100
10
-0.11450980071
20
-14.8937549161
10
-0.110557181873
20
-14.7719741564
10
-0.106604563079
20
-14.6501933968
10
-0.102651944331
20
-14.5284126371
10
-0.0986993256291
20
-14.4066318774
10
-0.0947467069752
20
-14.2848511177
10
-0.0907940883705
20
-14.163070358
10
-0.0868414698164
20
-14.0412895984
10
-0.0828888513143
20
-13.9195088387
10
-0.0789362328658
20
-13.797728079
10
-0.0749836144724
20
-13.6759473193
10
-0.0710309961358
20
-13.5541665596
10
-0.0670783778576
20
-13.4323857999
10
-0.0631257596397
20
-13.3106050402
10
-0.0591731414838
20
-13.1888242805
10
-0.0552205233919
20
-13.0670435208
10
-0.051267905366
20
-12.9452627611
10
-0.0473152874082
20
-12.8234820014
10
-0.0433626695205
20
-12.7017012417
10
-0.0394100517053
20
-12.579920482
10
-0.035457433965
20
-12.4581397223
10
-0.0315048163019
20
-12.3363589626
10
-0.0275521987187
20
-12.2145782029
10
-0.0235995812181
20
-12.0927974431
10
-0.0196469638027
20
-11.9710166834
10
-0.0156943464757
20
-11.8492359237
10
-0.01174172924
20
-11.727455164
10
-0.00778911209893
20
-11.6056744042
10
-0.00383649505574
20
-11.4838936445
10
0.000116121885985
20
-11.3621128848
10
0.00406873872255
20
-11.240332125
10
0.00802135545008
20
-11.1185513653
10
0.0119739720645
20
-10.9967706056
10
0.0159265885615
20
-10.8749898458
10
0.0198792049366
20
-10.7532090861
10
0.0238318211851
20
-10.6314283263
10
0.027784437302
20
-10.5096475666
10
0.0317370532821
20
-10.3878668068
10
0.0356896691197
20
-10.266086047
10
0.0396422848092
20
-10.1443052873
10
0.0435949003443
20
-10.0225245275
10
0.0475475157185
20
-9.9007437677
10
0.0515001309251
20
-9.77896300791
10
0.0554527459566
20
-9.65718224812
10
0.0594053608054
20
-9.53540148832
10
0.0633579754635
20
-9.41362072852
10
0.0673105899221
20
-9.29183996871
10
0.071263204172
20
-9.1700592089
10
0.0752158182036
20
-9.04827844908
10
0.0791684320065
20
-8.92649768925
10
0.0831210455696
20
-8.80471692941
10
0.0870736588813
20
-8.68293616957
10
0.091026271929
20
-8.56115540972
10
0.0949788846994
20
-8.43937464986
10
0.0989314971781
20
-8.31759389
10
0.10288410935
20
-8.19581313012
10
0.106836721199
20
-8.07403237023
10
0.110789332706
20
-7.95225161034
10
0.114741943854
20
-7.83047085043
10
0.118694554623
20
-7.70869009051
10
0.122647164989
20
-7.58690933058
10
0.126599774931
20
-7.46512857064
10
0.130552384421
20
-7.34334781068
10
0.134504993434
20
-7.22156705071
10
0.138457601939
20
-7.09978629072
10
0.142410209905
20
-6.97800553072
10
0.146362817295
20
-6.8562247707
10
0.150315424072
20
-6.73444401066
10
0.154268030195
20
-6.6126632506
10
0.158220635618
20
-6.49088249052
10
0.162173240291
20
-6.36910173042
10
0.166125844161
20
-6.2473209703
10
0.170078447166
20
-6.12554021015
10
0.174031049242
20
-6.00375944997
10
0.177983650314
20
-5.88197868976
10
0.181936250304
20
-5.76019792952
10
0.18588884912
20
-5.63841716924
10
0.189841446663
20
-5.51663640892
10
0.193794042822
20
-5.39485564857
10
0.197746637472
20
-5.27307488817
10
0.201699230473
20
-5.15129412772
10
0.205651821667
20
-5.02951336721
10
0.209604410874
20
-4.90773260665
10
0.21355699789
20
-4.78595184601
10
0.217509582485
20
-4.66417108531
10
0.221462164391
20
-4.54239032453
10
0.225414743301
20
-4.42060956366
10
0.22936731886
20
-4.29882880268
10
0.233319890654
20
-4.1770480416
10
0.237272458198
20
-4.05526728038
10
0.241225020919
20
-3.93348651902
10
0.245177578138
20
-3.8117057575
10
0.249130129041
20
-3.68992499579
10
0.253082672645
20
-3.56814423386
10
0.257035207753
20
-3.44636347167
10
0.26098773289
20
-3.32458270919
10
0.264940246219
20
-3.20280194635
10
0.268892745423
20
-3.08102118309
10
0.272845227536
20
-2.95924041931
10
0.276797688698
20
-2.83745965491
0
LWPOLYLINE
8
main_beam_width
70
0
90
100
10
-0.046324415625
20
-14.8957978305
10
-0.0429790994026
20
-14.7739988754
10
-0.0396337831361
20
-14.6521999202
10
-0.0362884668244
20
-14.530400965
10
-0.0329431504661
20
-14.4086020098
10
-0.0295978340599
20
-14.2868030547
10
-0.0262525176046
20
-14.1650040995
10
-0.0229072010987
20
-14.0432051443
10
-0.0195618845407
20
-13.9214061892
10
-0.0162165679292
20
-13.799607234
10
-0.0128712512625
20
-13.6778082788
10
-0.00952593453911
20
-13.5560093237
10
-0.00618061775724
20
-13.4342103685
10
-0.00283530091513
20
-13.3124114133
10
0.000510015989037
20
-13.1906124582
10
0.00385533295719
20
-13.068813503
10
0.00720064999131
20
-12.9470145479
10
0.0105459670935
20
-12.8252155927
10
0.0138912842659
20
-12.7034166376
10
0.0172366015107
20
-12.5816176824
10
0.0205819188304
20
-12.4598187273
10
0.0239272362274
20
-12.3380197721
10
0.0272725537043
20
-12.216220817
10
0.0306178712636
20
-12.0944218619
10
0.0339631889084
20
-11.9726229067
10
0.0373085066414
20
-11.8508239516
10
0.0406538244657
20
-11.7290249965
10
0.0439991423847
20
-11.6072260413
10
0.0473444604015
20
-11.4854270862
10
0.0506897785198
20
-11.3636281311
10
0.0540350967433
20
-11.241829176
10
0.0573804150758
20
-11.1200302209
10
0.0607257335215
20
-10.9982312657
10
0.0640710520845
20
-10.8764323106
10
0.0674163707694
20
-10.7546333555
10
0.0707616895809
20
-10.6328344004
10
0.0741070085241
20
-10.5110354453
10
0.0774523276041
20
-10.3892364902
10
0.0807976468265
20
-10.2674375351
10
0.084142966197
20
-10.1456385801
10
0.087488285722
20
-10.023839625
10
0.0908336054078
20
-9.90204066991
10
0.0941789252613
20
-9.78024171484
10
0.0975242452898
20
-9.65844275978
10
0.100869565501
20
-9.53664380472
10
0.104214885903
20
-9.41484484966
10
0.107560206504
20
-9.29304589462
10
0.110905527315
20
-9.17124693958
10
0.114250848343
20
-9.04944798454
10
0.1175961696
20
-8.92764902951
10
0.120941491097
20
-8.80585007449
10
0.124286812845
20
-8.68405111948
10
0.127632134858
20
-8.56225216448
10
0.130977457147
20
-8.44045320948
10
0.134322779729
20
-8.31865425449
10
0.137668102617
20
-8.19685529951
10
0.141013425828
20
-8.07505634454
10
0.144358749381
20
-7.95325738959
10
0.147704073293
20
-7.83145843464
10
0.151049397584
20
-7.7096594797
10
0.154394722278
20
-7.58786052478
10
0.157740047397
20
-7.46606156987
10
0.161085372966
20
-7.34426261497
10
0.164430699013
20
-7.22246366008
10
0.167776025568
20
-7.10066470521
10
0.171121352663
20
-6.97886575036
10
0.174466680332
20
-6.85706679553
10
0.177812008615
20
-6.73526784071
10
0.181157337552
20
-6.61346888591
10
0.184502667189
20
-6.49166993114
10
0.187847997576
20
-6.36987097638
10
0.191193328767
20
-6.24807202165
10
0.194538660821
20
-6.12627306695
10
0.197883993806
20
-6.00447411227
10
0.201229327793
20
-5.88267515763
10
0.204574662864
20
-5.76087620301
10
0.207919999108
20
-5.63907724843
10
0.211265336625
20
-5.51727829389
10
0.214610675526
20
-5.39547933939
10
0.217956015936
20
-5.27368038494
10
0.221301357995
20
-5.15188143054
10
0.224646701861
20
-5.03008247619
10
0.227992047714
20
-4.9082835219
10
0.231337395758
20
-4.78648456767
10
0.234682746223
20
-4.66468561352
10
0.238028099377
20
-4.54288665945
10
0.241373455527
20
-4.42108770546
10
0.244718815028
20
-4.29928875158
10
0.248064178294
20
-4.17748979781
10
0.25140954581
20
-4.05569084417
10
0.254754918149
20
-3.93389189068
10
0.25810029599
20
-3.81209293734
10
0.261445680148
20
-3.6902939842
10
0.264791071604
20
-3.56849503128
10
0.268136471556
20
-3.44669607861
10
0.271481881479
20
-3.32489712624
10
0.27482730321
20
-3.20309817422
10
0.278172739066
20
-3.08129922262
10
0.281518192013
20
-2.95950027154
10
0.28486366591
20
-2.83770132109
0
LINE
8
main_beam
10
0.0607065750168
20
23.2261658347
11
0.0607091412993
21
23.376165833
0
LWPOLYLINE
8
main_beam_width
70
0
90
10
10
0.0264528667813
20
23.2261664207
10
0.0264531506586
20
23.2428330872
10
0.0264534345351
20
23.2594997537
10
0.0264537184108
20
23.2761664202
10
0.0264540022857
20
23.2928330866
10
0.0264542861598
20
23.3094997531
10
0.0264545700331
20
23.3261664196
10
0.0264548539056
20
23.3428330861
10
0.0264551377773
20
23.3594997525
10
0.0264554216482
20
23.376166419
0
LWPOLYLINE
8
main_beam_width
70
0
90
10
10
0.0949602832522
20
23.2261652487
10
0.09496056966
20
23.2428319151
10
0.0949608560685
20
23.2594985816
10
0.0949611424778
20
23.2761652481
10
0.0949614288879
20
23.2928319146
10
0.0949617152988
20
23.309498581
10
0.0949620017105
20
23.3261652475
10
0.094962288123
20
23.342831914
10
0.0949625745363
20
23.3594985805
10
0.0949628609504
20
23.376165247
0
LINE
8
main_beam
10
0.0607048051668
20
23.0761658364
11
4.65513462381e-05
21
4.65513462338e-05
0
LWPOLYLINE
8
main_beam_width
70
0
90
10
10
0.0949580680037
20
23.0760757977
10
0.0882180775808
20
20.5120625443
10
0.0814781059218
20
17.9480492909
10
0.074738153027
20
15.3840360373
10
0.0679982188965
20
12.8200227838
10
0.0612583035306
20
10.2560095302
10
0.0545184069294
20
7.69199627653
10
0.0477785290932
20
5.12798302282
10
0.041038670022
20
2.56396976907
10
0.0342988297159
20
-4.34847369348e-05
0
LWPOLYLINE
8
main_beam_width
70
0
90
10
10
0.0264515423298
20
23.0762558751
10
0.0197119207925
20
20.5122426207
10
0.0129722804914
20
17.9482293664
10
0.00623262142618
20
15.3842161121
10
-0.000507056403442
20
12.8202028578
10
-0.00724675299765
20
10.2561896037
10
-0.0139864683566
20
7.69217634953
10
-0.0207262024805
20
5.12816309545
10
-0.0274659553694
20
2.56414984141
10
-0.0342057270234
20
0.000136587429409
0
LINE
8
main_beam
10
-2.70308952781
20
0.257939190521
11
-14.7623321516
21
-0.0387580718791
0
LWPOLYLINE
8
main_beam_width
70
0
90
100
10
-2.70298988675
20
0.253889285293
10
-2.82479291836
20
0.250587508595
10
-2.94659594946
20
0.247285711199
10
-3.06839898015
20
0.243983896917
10
-3.19020201049
20
0.240682068681
10
-3.31200504055
20
0.23738022878
10
-3.43380807037
20
0.234078379029
10
-3.55561109998
20
0.230776520885
10
-3.67741412941
20
0.227474655532
10
-3.79921715869
20
0.224172783939
10
-3.92102018783
20
0.220870906912
10
-4.04282321686
20
0.21756902512
10
-4.16462624578
20
0.214267139131
10
-4.28642927461
20
0.210965249423
10
-4.40823230336
20
0.207663356405
10
-4.53003533204
20
0.204361460428
10
-4.65183836066
20
0.201059561795
10
-4.77364138921
20
0.19775766077
10
-4.89544441771
20
0.194455757582
10
-5.01724744616
20
0.191153852431
10
-5.13905047457
20
0.187851945496
10
-5.26085350294
20
0.184550036932
10
-5.38265653127
20
0.181248126877
10
-5.50445955957
20
0.177946215456
10
-5.62626258784
20
0.174644302777
10
-5.74806561608
20
0.17134238894
10
-5.86986864429
20
0.168040474032
10
-5.99167167248
20
0.164738558135
10
-6.11347470064
20
0.161436641319
10
-6.23527772879
20
0.158134723649
10
-6.35708075691
20
0.154832805186
10
-6.47888378502
20
0.151530885982
10
-6.60068681311
20
0.148228966087
10
-6.72248984118
20
0.144927045546
10
-6.84429286924
20
0.141625124399
10
-6.96609589728
20
0.138323202685
10
-7.08789892532
20
0.135021280437
10
-7.20970195333
20
0.131719357688
10
-7.33150498134
20
0.128417434467
10
-7.45330800934
20
0.125115510801
10
-7.57511103733
20
0.121813586716
10
-7.6969140653
20
0.118511662233
10
-7.81871709327
20
0.115209737375
10
-7.94052012123
20
0.111907812162
10
-8.06232314918
20
0.108605886613
10
-8.18412617712
20
0.105303960744
10
-8.30592920506
20
0.102002034572
10
-8.42773223299
20
0.0987001081128
10
-8.54953526091
20
0.0953981813791
10
-8.67133828882
20
0.0920962543848
10
-8.79314131673
20
0.0887943271422
10
-8.91494434463
20
0.0854923996628
10
-9.03674737253
20
0.0821904719575
10
-9.15855040042
20
0.0788885440366
10
-9.28035342831
20
0.0755866159097
10
-9.40215645619
20
0.0722846875858
10
-9.52395948407
20
0.0689827590734
10
-9.64576251194
20
0.0656808303807
10
-9.76756553981
20
0.0623789015152
10
-9.88936856768
20
0.059076972484
10
-10.0111715955
20
0.055775043294
10
-10.1329746234
20
0.0524731139516
10
-10.2547776512
20
0.0491711844628
10
-10.3765806791
20
0.0458692548334
10
-10.4983837069
20
0.0425673250688
10
-10.6201867348
20
0.0392653951743
10
-10.7419897626
20
0.0359634651548
10
-10.8637927905
20
0.0326615350148
10
-10.9855958183
20
0.029359604759
10
-11.1073988461
20
0.0260576743915
10
-11.229201874
20
0.0227557439162
10
-11.3510049018
20
0.0194538133372
10
-11.4728079296
20
0.0161518826579
10
-11.5946109574
20
0.0128499518819
10
-11.7164139853
20
0.00954802101258
10
-11.8382170131
20
0.00624609005302
10
-11.9600200409
20
0.00294415900629
10
-12.0818230687
20
-0.000357772124728
10
-12.2036260965
20
-0.00365970333725
10
-12.3254291243
20
-0.00696163462864
10
-12.4472321521
20
-0.0102635659963
10
-12.5690351799
20
-0.0135654974379
10
-12.6908382077
20
-0.0168674289511
10
-12.8126412355
20
-0.0201693605336
10
-12.9344442633
20
-0.0234712921833
10
-13.0562472911
20
-0.0267732238982
10
-13.1780503189
20
-0.0300751556762
10
-13.2998533467
20
-0.0333770875155
10
-13.4216563745
20
-0.0366790194143
10
-13.5434594023
20
-0.0399809513709
10
-13.6652624301
20
-0.0432828833834
10
-13.7870654579
20
-0.0465848154505
10
-13.9088684857
20
-0.0498867475704
10
-14.0306715135
20
-0.0531886797417
10
-14.1524745413
20
-0.0564906119629
10
-14.274277569
20
-0.0597925442327
10
-14.3960805968
20
-0.0630944765498
10
-14.5178836246
20
-0.0663964089128
10
-14.6396866524
20
-0.0696983413206
10
-14.7614896802
20
-0.0730002737718
0
LWPOLYLINE
8
main_beam_width
70
0
90
100
10
-2.70318916888
20
0.261989095749
10
-2.82500720037
20
0.259296988358
10
-2.94682523238
20
0.256604901665
10
-3.0686432648
20
0.253912831858
10
-3.19046129756
20
0.251220776005
10
-3.31227933061
20
0.248528731817
10
-3.4340973639
20
0.245836697479
10
-3.5559153974
20
0.243144671534
10
-3.67773343107
20
0.240452652799
10
-3.7995514649
20
0.237760640303
10
-3.92136949887
20
0.235068633241
10
-4.04318753295
20
0.232376630944
10
-4.16500556713
20
0.229684632844
10
-4.28682360141
20
0.226992638463
10
-4.40864163576
20
0.224300647393
10
-4.53045967019
20
0.221608659281
10
-4.65227770469
20
0.218916673824
10
-4.77409573924
20
0.216224690761
10
-4.89591377385
20
0.21353270986
10
-5.0177318085
20
0.210840730921
10
-5.1395498432
20
0.208148753768
10
-5.26136787794
20
0.205456778243
10
-5.38318591271
20
0.202764804209
10
-5.50500394752
20
0.200072831541
10
-5.62682198236
20
0.197380860131
10
-5.74864001723
20
0.19468888988
10
-5.87045805213
20
0.191996920698
10
-5.99227608705
20
0.189304952507
10
-6.11409412199
20
0.186612985234
10
-6.23591215695
20
0.183921018815
10
-6.35773019193
20
0.181229053189
10
-6.47954822693
20
0.178537088304
10
-6.60136626195
20
0.17584512411
10
-6.72318429699
20
0.173153160562
10
-6.84500233203
20
0.17046119762
10
-6.9668203671
20
0.167769235246
10
-7.08863840217
20
0.165077273404
10
-7.21045643726
20
0.162385312064
10
-7.33227447236
20
0.159693351197
10
-7.45409250747
20
0.157001390774
10
-7.57591054259
20
0.154309430771
10
-7.69772857772
20
0.151617471164
10
-7.81954661286
20
0.148925511933
10
-7.94136464801
20
0.146233553057
10
-8.06318268317
20
0.143541594518
10
-8.18500071833
20
0.140849636297
10
-8.3068187535
20
0.13815767838
10
-8.42863678868
20
0.135465720751
10
-8.55045482387
20
0.132773763396
10
-8.67227285906
20
0.130081806301
10
-8.79409089426
20
0.127389849455
10
-8.91590892946
20
0.124697892846
10
-9.03772696467
20
0.122005936462
10
-9.15954499989
20
0.119313980294
10
-9.28136303511
20
0.116622024332
10
-9.40318107033
20
0.113930068567
10
-9.52499910556
20
0.111238112991
10
-9.6468171408
20
0.108546157594
10
-9.76863517604
20
0.105854202371
10
-9.89045321128
20
0.103162247313
10
-10.0122712465
20
0.100470292414
10
-10.1340892818
20
0.0977783376679
10
-10.255907317
20
0.0950863830679
10
-10.3777253523
20
0.0923944286084
10
-10.4995433875
20
0.089702474284
10
-10.6213614228
20
0.0870105200896
10
-10.7431794581
20
0.0843185660203
10
-10.8649974933
20
0.0816266120713
10
-10.9868155286
20
0.0789346582383
10
-11.1086335639
20
0.076242704517
10
-11.2304515992
20
0.0735507509033
10
-11.3522696345
20
0.0708587973935
10
-11.4740876697
20
0.0681668439838
10
-11.595905705
20
0.0654748906709
10
-11.7177237403
20
0.0627829374514
10
-11.8395417756
20
0.0600909843221
10
-11.9613598109
20
0.0573990312799
10
-12.0831778462
20
0.054707078322
10
-12.2049958815
20
0.0520151254457
10
-12.3268139168
20
0.0493231726482
10
-12.4486319521
20
0.046631219927
10
-12.5704499874
20
0.0439392672797
10
-12.6922680227
20
0.041247314704
10
-12.814086058
20
0.0385553621976
10
-12.9359040933
20
0.0358634097584
10
-13.0577221286
20
0.0331714573844
10
-13.1795401639
20
0.0304795050735
10
-13.3013581992
20
0.027787552824
10
-13.4231762345
20
0.0250956006339
10
-13.5449942699
20
0.0224036485015
10
-13.6668123052
20
0.0197116964252
10
-13.7886303405
20
0.0170197444033
10
-13.9104483758
20
0.0143277924343
10
-14.0322664111
20
0.0116358405167
10
-14.1540844464
20
0.00894388864911
10
-14.2759024818
20
0.00625193683005
10
-14.3977205171
20
0.00355998505823
10
-14.5195385524
20
0.00086803333237
10
-14.6413565877
20
-0.00182391834878
10
-14.7631746231
20
-0.00451586998641
0
LINE
8
main_beam
10
0.280830677304
20
-2.837580488
11
0.165454530809
21
-17.2551296376
0
LWPOLYLINE
8
main_beam_width
70
0
90
10
10
0.284865346468
20
-2.83761277536
10
0.272027709027
20
-4.4395625363
10
0.259194613161
20
-6.04151233358
10
0.24636610499
20
-7.64346216758
10
0.233542215324
20
-9.24541203854
10
0.220722959138
20
-10.8473619466
10
0.207908335309
20
-12.4493118917
10
0.195098326639
20
-14.0512618737
10
0.182292900154
20
-15.6532118924
10
0.169492007663
20
-17.2551619474
0
LWPOLYLINE
8
main_beam_width
70
0
90
10
10
0.276796008141
20
-2.83754820064
10
0.263994501916
20
-4.43949825072
10
0.251188454117
20
-6.04144826446
10
0.238377818622
20
-7.64339824148
10
0.225562564622
20
-9.24534818154
10
0.212742677142
20
-10.8472980845
10
0.199918157306
20
-12.4492479504
10
0.187089022309
20
-14.0511977794
10
0.174255305129
20
-15.6531475717
10
0.161417053955
20
-17.2550973278
0
LINE
8
main_beam
10
26.4891205797
20
-0.10601540304
11
26.6391205783
21
-0.106014867895
0
LWPOLYLINE
8
main_beam_width
70
0
90
10
10
26.489120457
20
-0.071621323947
10
26.5057871235
20
-0.0716212630754
10
26.52245379
20
-0.071621202203
10
26.5391204565
20
-0.0716211413298
10
26.555787123
20
-0.0716210804558
10
26.5724537896
20
-0.071621019581
10
26.5891204561
20
-0.0716209587055
10
26.6057871226
20
-0.0716208978291
10
26.6224537891
20
-0.071620836952
10
26.6391204556
20
-0.0716207760741
0
LWPOLYLINE
8
main_beam_width
70
0
90
10
10
26.4891207024
20
-0.140409482133
10
26.5057873689
20
-0.140409424084
10
26.5224540354
20
-0.140409366035
10
26.5391207019
20
-0.140409307987
10
26.5557873684
20
-0.14040924994
10
26.572454035
20
-0.140409191894
10
26.5891207015
20
-0.140409133848
10
26.605787368
20
-0.140409075804
10
26.6224540345
20
-0.14040901776
10
26.6391207011
20
-0.140408959716
0
LINE
8
main_beam
10
0.165454530809
20
-17.2551296376
11
0.16465450722
21
-17.3551015968
0
LWPOLYLINE
8
main_beam_width
70
0
90
10
10
0.169492007663
20
-17.2551619474
10
0.169403260532
20
-17.266269944
10
0.169314513504
20
-17.2773779407
10
0.169225766577
20
-17.2884859373
10
0.169137019754
20
-17.2995939339
10
0.169048273032
20
-17.3107019306
10
0.168959526413
20
-17.3218099272
10
0.168870779895
20
-17.3329179238
10
0.16878203348
20
-17.3440259204
10
0.168693287168
20
-17.3551339171
0
LWPOLYLINE
8
main_beam_width
70
0
90
10
10
0.161417053955
20
-17.2550973278
10
0.161328018066
20
-17.2662053221
10
0.161238982074
20
-17.2773133164
10
0.161149945981
20
-17.2884213107
10
0.161060909785
20
-17.299529305
10
0.160971873487
20
-17.3106372993
10
0.160882837086
20
-17.3217452936
10
0.160793800584
20
-17.3328532879
10
0.160704763979
20
-17.3439612823
10
0.160615727272
20
-17.3550692766
0
LINE
8
main_beam
10
0.131964939811
20
-0.0371062484662
11
26.339120581
21
-0.106015772105
0
LWPOLYLINE
8
main_beam_width
70
0
90
10
10
0.132055371707
20
-0.00271386484942
10
3.04396155417
20
-0.0103704361957
10
5.95586773669
20
-0.0180269836315
10
8.86777391928
20
-0.0256835071568
10
11.7796801019
20
-0.0333400067719
10
14.6915862846
20
-0.0409964824771
10
17.6034924674
20
-0.0486529342727
10
20.5153986503
20
-0.0563093621589
10
23.4273048332
20
-0.0639657661362
10
26.3392110161
20
-0.0716221462051
0
LWPOLYLINE
8
main_beam_width
70
0
90
10
10
0.131874507915
20
-0.0714986320831
10
3.04378069015
20
-0.0791552882121
10
5.95568687233
20
-0.0868119682517
10
8.86759305444
20
-0.0944686722017
10
11.7794992365
20
-0.102125400062
10
14.6914054185
20
-0.109782151832
10
17.6033116004
20
-0.117438927512
10
20.5152177823
20
-0.125095727101
10
23.4271239641
20
-0.132752550599
10
26.3390301458
20
-0.140409398005
0
LINE
8
main_beam
10
0.0607048051668
20
23.0761658364
11
0.0607065750168
21
23.2261658347
0
LWPOLYLINE
8
main_beam_width
70
0
90
10
10
0.0264511047628
20
23.0761662405
10
0.0264513005437
20
23.092832907
10
0.0264514963242
20
23.1094995735
10
0.0264516921044
20
23.12616624
10
0.0264518878841
20
23.1428329065
10
0.0264520836635
20
23.1594995729
10
0.0264522794426
20
23.1761662394
10
0.0264524752212
20
23.1928329059
10
0.0264526709995
20
23.2094995724
10
0.0264528667774
20
23.2261662389
0
LWPOLYLINE
8
main_beam_width
70
0
90
10
10
0.0949585055707
20
23.0761654322
10
0.0949587030898
20
23.0928320987
10
0.0949589006093
20
23.1094987652
10
0.0949590981291
20
23.1261654317
10
0.0949592956494
20
23.1428320981
10
0.09495949317
20
23.1594987646
10
0.094959690691
20
23.1761654311
10
0.0949598882123
20
23.1928320976
10
0.0949600857341
20
23.2094987641
10
0.0949602832562
20
23.2261654305
0
LINE
8
main_beam
10
0.280830677304
20
-2.837580488
11
0.165454530809
21
-17.2551296376
0
LWPOLYLINE
8
main_beam_width
70
0
90
10
10
0.284865346468
20
-2.83761277536
10
0.272027709027
20
-4.4395625363
10
0.259194613161
20
-6.04151233358
10
0.24636610499
20
-7.64346216758
10
0.233542215324
20
-9.24541203854
10
0.220722959138
20
-10.8473619466
10
0.207908335309
20
-12.4493118917
10
0.195098326639
20
-14.0512618737
10
0.182292900154
20
-15.6532118924
10
0.169492007663
20
-17.2551619474
0
LWPOLYLINE
8
main_beam_width
70
0
90
10
10
0.276796008141
20
-2.83754820064
10
0.263994501916
20
-4.43949825072
10
0.251188454117
20
-6.04144826446
10
0.238377818622
20
-7.64339824148
10
0.225562564622
20
-9.24534818154
10
0.212742677142
20
-10.8472980845
10
0.199918157306
20
-12.4492479504
10
0.187089022309
20
-14.0511977794
10
0.174255305129
20
-15.6531475717
10
0.161417053955
20
-17.2550973278
0
LINE
8
main_beam
10
26.339120581
20
-0.106015772105
11
26.4891205797
21
-0.10601540304
0
LWPOLYLINE
8
main_beam_width
70
0
90
10
10
26.3391204963
20
-0.0716217017533
10
26.3557871629
20
-0.0716216597763
10
26.3724538294
20
-0.0716216177989
10
26.3891204959
20
-0.0716215758212
10
26.4057871624
20
-0.071621533843
10
26.4224538289
20
-0.0716214918645
10
26.4391204955
20
-0.0716214498857
10
26.455787162
20
-0.0716214079064
10
26.4724538285
20
-0.0716213659268
10
26.489120495
20
-0.0716213239469
0
LWPOLYLINE
8
main_beam_width
70
0
90
10
10
26.3391206656
20
-0.140409842457
10
26.3557873321
20
-0.14040980242
10
26.3724539986
20
-0.140409762383
10
26.3891206652
20
-0.140409722346
10
26.4057873317
20
-0.140409682309
10
26.4224539982
20
-0.140409642273
10
26.4391206647
20
-0.140409602238
10
26.4557873312
20
-0.140409562203
10
26.4724539978
20
-0.140409522168
10
26.4891206643
20
-0.140409482133
0
LINE
8
main_beam
10
4.65513462373e-05
20
4.65513462328e-05
11
0.0374789572554
21
-0.132864634051
0
LWPOLYLINE
8
main_beam_width
70
0
90
10
10
0.0369215772552
20
0.0104318393385
10
0.0410807332478
20
-0.00433607021192
10
0.0452398892406
20
-0.0191039797622
10
0.0493990452336
20
-0.0338718893125
10
0.0535582012269
20
-0.0486397988627
10
0.0577173572204
20
-0.0634077084128
10
0.0618765132142
20
-0.0781756179628
10
0.0660356692082
20
-0.0929435275128
10
0.0701948252024
20
-0.107711437063
10
0.0743539811968
20
-0.122479346613
0
LWPOLYLINE
8
main_beam_width
70
0
90
10
10
-0.0368284745627
20
-0.010338736646
10
-0.032669318131
20
-0.0251066460727
10
-0.0285101616996
20
-0.0398745554995
10
-0.0243510052683
20
-0.0546424649263
10
-0.0201918488374
20
-0.0694103743533
10
-0.0160326924066
20
-0.0841782837802
10
-0.0118735359761
20
-0.0989461932073
10
-0.00771437954581
20
-0.113714102634
10
-0.00355522311576
20
-0.128482012062
10
0.00060393331405
20
-0.143249921489
0
LINE
8
main_beam
10
4.65513462373e-05
20
4.6551346238e-05
11
0.0374789572554
21
-0.132864634051
0
LWPOLYLINE
8
main_beam_width
70
0
90
10
10
0.0369215772552
20
0.0104318393385
10
0.0410807332478
20
-0.00433607021192
10
0.0452398892406
20
-0.0191039797622
10
0.0493990452336
20
-0.0338718893125
10
0.0535582012269
20
-0.0486397988627
10
0.0577173572204
20
-0.0634077084128
10
0.0618765132142
20
-0.0781756179628
10
0.0660356692082
20
-0.0929435275128
10
0.0701948252024
20
-0.107711437063
10
0.0743539811968
20
-0.122479346613
0
LWPOLYLINE
8
main_beam_width
70
0
90
10
10
-0.0368284745627
20
-0.010338736646
10
-0.032669318131
20
-0.0251066460727
10
-0.0285101616996
20
-0.0398745554995
10
-0.0243510052683
20
-0.0546424649263
10
-0.0201918488374
20
-0.0694103743532
10
-0.0160326924066
20
-0.0841782837802
10
-0.0118735359761
20
-0.0989461932073
10
-0.0077143795458
20
-0.113714102634
10
-0.00355522311576
20
-0.128482012062
10
0.000603933314051
20
-0.143249921489
0
LINE
8
main_beam
10
0.131964939811
20
-0.0371062484662
11
4.65513462379e-05
21
4.6551346238e-05
0
LWPOLYLINE
8
main_beam_width
70
0
90
10
10
0.121579651263
20
-0.0739812763469
10
0.106922052607
20
-0.0698531872588
10
0.0922644539505
20
-0.065725098171
10
0.0776068552941
20
-0.0615970090834
10
0.0629492566376
20
-0.057468919996
10
0.048291657981
20
-0.0533408309089
10
0.0336340593243
20
-0.049212741822
10
0.0189764606676
20
-0.0450846527353
10
0.00431886201085
20
-0.0409565636489
10
-0.010338736646
20
-0.0368284745627
0
LWPOLYLINE
8
main_beam_width
70
0
90
10
10
0.142350228358
20
-0.000231220585607
10
0.127692629578
20
0.00389686806244
10
0.113035030798
20
0.00802495671072
10
0.0983774320177
20
0.0121530453592
10
0.0837198332377
20
0.016281134008
10
0.0690622344577
20
0.020409222657
10
0.0544046356778
20
0.0245373113062
10
0.039747036898
20
0.0286653999556
10
0.0250894381182
20
0.0327934886053
10
0.0104318393385
20
0.0369215772552
0
LINE
8
main_beam
10
0.0374789572554
20
-0.132864634051
11
-0.0804171081677
21
-14.8947763733
0
LWPOLYLINE
8
main_beam_width
70
0
90
10
10
0.0715856781614
20
-0.13313702751
10
0.0584861045025
20
-1.7733494429
10
0.0453865386219
20
-3.41356185835
10
0.0322869805196
20
-5.05377427386
10
0.0191874301955
20
-6.69398668944
10
0.00608788764969
20
-8.33419910508
10
-0.00701164711787
20
-9.97441152078
10
-0.0201111741072
20
-11.6146239365
10
-0.0332106933184
20
-13.2548363524
10
-0.0463102047514
20
-14.8950487683
0
LWPOLYLINE
8
main_beam_width
70
0
90
10
10
0.00337223634953
20
-0.132592240592
10
-0.00972731564118
20
-1.77280465615
10
-0.0228268754102
20
-3.41301707165
10
-0.0359264429574
20
-5.05322948709
10
-0.0490260182829
20
-6.69344190247
10
-0.0621256013867
20
-8.33365431778
10
-0.0752251922688
20
-9.97386673304
10
-0.088324790929
20
-11.6140791482
10
-0.101424397367
20
-13.2542915634
10
-0.114524011584
20
-14.8945039784
0
LINE
8
main_beam
10
4.65513462302e-05
20
4.65513462294e-05
11
0.0607048051668
21
23.0761658364
0
LWPOLYLINE
8
main_beam_width
70
0
90
10
10
-0.0342057270234
20
0.000136587429403
10
-0.0274659553694
20
2.56414984141
10
-0.0207262024805
20
5.12816309545
10
-0.0139864683566
20
7.69217634953
10
-0.00724675299765
20
10.2561896037
10
-0.000507056403446
20
12.8202028578
10
0.00623262142618
20
15.3842161121
10
0.0129722804914
20
17.9482293664
10
0.0197119207925
20
20.5122426207
10
0.0264515423298
20
23.0762558751
0
LWPOLYLINE
8
main_beam_width
70
0
90
10
10
0.0342988297159
20
-4.34847369445e-05
10
0.041038670022
20
2.56396976907
10
0.0477785290932
20
5.12798302282
10
0.0545184069294
20
7.69199627653
10
0.0612583035306
20
10.2560095302
10
0.0679982188965
20
12.8200227838
10
0.074738153027
20
15.3840360373
10
0.0814781059218
20
17.9480492909
10
0.0882180775808
20
20.5120625443
10
0.0949580680037
20
23.0760757977
0
LINE
8
main_beam
10
-14.7623321516
20
-0.0387580718791
11
4.65513462302e-05
21
4.65513462294e-05
0
LWPOLYLINE
8
main_beam_width
70
0
90
10
10
-14.7624221881
20
-0.00450562609752
10
-13.1221578877
20
-0.00019405061438
10
-11.4818935872
20
0.0041175325483
10
-9.84162928683
20
0.00842912339055
10
-8.20136498643
20
0.0127407219124
10
-6.56110068605
20
0.0170523281138
10
-4.92083638569
20
0.0213639419949
10
-3.28057208535
20
0.0256755635556
10
-1.64030778504
20
0.0299871927959
10
-4.34847369437e-05
20
0.0342988297159
0
LWPOLYLINE
8
main_beam_width
70
0
90
10
10
-14.7622421151
20
-0.0730105176607
10
-13.1219778149
20
-0.0686988435382
10
-11.4817135147
20
-0.0643871770953
10
-9.84144921444
20
-0.0600755183319
10
-8.20118491418
20
-0.0557638672481
10
-6.5609206139
20
-0.0514522238439
10
-4.9206563136
20
-0.0471405881194
10
-3.28039201327
20
-0.0428289600744
10
-1.64012771293
20
-0.0385173397091
10
0.000136587429404
20
-0.0342057270234
0
LINE
8
main_beam
10
26.339120581
20
-0.106015772105
11
0.131964939811
21
-0.0371062484662
0
LWPOLYLINE
8
main_beam_width
70
0
90
10
10
26.3390301458
20
-0.140409398005
10
23.4271239641
20
-0.132752550599
10
20.5152177823
20
-0.125095727101
10
17.6033116004
20
-0.117438927512
10
14.6914054185
20
-0.109782151832
10
11.7794992365
20
-0.102125400062
10
8.86759305444
20
-0.0944686722017
10
5.95568687233
20
-0.0868119682517
10
3.04378069015
20
-0.0791552882121
10
0.131874507915
20
-0.0714986320831
0
LWPOLYLINE
8
main_beam_width
70
0
90
10
10
26.3392110161
20
-0.0716221462051
10
23.4273048332
20
-0.0639657661362
10
20.5153986503
20
-0.0563093621589
10
17.6034924674
20
-0.0486529342727
10
14.6915862846
20
-0.0409964824771
10
11.7796801019
20
-0.0333400067719
10
8.86777391928
20
-0.0256835071568
10
5.95586773669
20
-0.0180269836315
10
3.04396155417
20
-0.0103704361957
10
0.132055371707
20
-0.00271386484941
0
LINE
8
main_beam
10
0.165454530809
20
-17.2551296376
11
0.16465450722
21
-17.3551015968
0
LWPOLYLINE
8
main_beam_width
70
0
90
10
10
0.169492007663
20
-17.2551619474
10
0.169403260532
20
-17.266269944
10
0.169314513504
20
-17.2773779407
10
0.169225766577
20
-17.2884859373
10
0.169137019754
20
-17.2995939339
10
0.169048273032
20
-17.3107019306
10
0.168959526413
20
-17.3218099272
10
0.168870779895
20
-17.3329179238
10
0.16878203348
20
-17.3440259204
10
0.168693287168
20
-17.3551339171
0
LWPOLYLINE
8
main_beam_width
70
0
90
10
10
0.161417053955
20
-17.2550973278
10
0.161328018066
20
-17.2662053221
10
0.161238982074
20
-17.2773133164
10
0.161149945981
20
-17.2884213107
10
0.161060909785
20
-17.299529305
10
0.160971873487
20
-17.3106372993
10
0.160882837086
20
-17.3217452936
10
0.160793800584
20
-17.3328532879
10
0.160704763979
20
-17.3439612823
10
0.160615727272
20
-17.3550692766
0
LINE
8
main_beam
10
0.16465450722
20
-17.3551015968
11
0.163658188604
21
-17.4550717925
0
LWPOLYLINE
8
main_beam_width
70
0
90
10
10
0.168693194796
20
-17.355141847
10
0.168582703442
20
-17.3662496486
10
0.168472212303
20
-17.3773574503
10
0.168361721379
20
-17.3884652519
10
0.16825123067
20
-17.3995730535
10
0.168140740175
20
-17.4106808551
10
0.168030249895
20
-17.4217886568
10
0.167919759829
20
-17.4328964584
10
0.167809269978
20
-17.44400426
10
0.167698780342
20
-17.4551120616
0
LWPOLYLINE
8
main_beam_width
70
0
90
10
10
0.160615819643
20
-17.3550613466
10
0.16050490686
20
-17.366169144
10
0.160393993862
20
-17.3772769415
10
0.16028308065
20
-17.3883847389
10
0.160172167222
20
-17.3994925363
10
0.16006125358
20
-17.4106003337
10
0.159950339723
20
-17.4217081311
10
0.159839425652
20
-17.4328159285
10
0.159728511366
20
-17.4439237259
10
0.159617596865
20
-17.4550315233
0
LINE
8
main_beam
10
0.16465450722
20
-17.3551015968
11
0.163658188604
21
-17.4550717925
0
LWPOLYLINE
8
main_beam_width
70
0
90
10
10
0.168693194796
20
-17.355141847
10
0.168582703442
20
-17.3662496486
10
0.168472212303
20
-17.3773574503
10
0.168361721379
20
-17.3884652519
10
0.16825123067
20
-17.3995730535
10
0.168140740175
20
-17.4106808551
10
0.168030249895
20
-17.4217886568
10
0.167919759829
20
-17.4328964584
10
0.167809269978
20
-17.44400426
10
0.167698780342
20
-17.4551120616
0
LWPOLYLINE
8
main_beam_width
70
0
90
10
10
0.160615819643
20
-17.3550613466
10
0.16050490686
20
-17.366169144
10
0.160393993862
20
-17.3772769415
10
0.16028308065
20
-17.3883847389
10
0.160172167222
20
-17.3994925363
10
0.16006125358
20
-17.4106003337
10
0.159950339723
20
-17.4217081311
10
0.159839425652
20
-17.4328159285
10
0.159728511366
20
-17.4439237259
10
0.159617596865
20
-17.4550315233
0
LINE
8
aux_beam
10
0.131964939811
20
-0.0371062484662
11
0.0933370834509
21
0.0933370834509
0
LWPOLYLINE
8
aux_beam_width
70
0
90
10
10
0.0952321235488
20
-0.0479838451161
10
0.090940139291
20
-0.0334901416342
10
0.086648155033
20
-0.0189964381524
10
0.0823561707748
20
-0.00450273467071
10
0.0780641865164
20
0.00999096881095
10
0.0737722022577
20
0.0244846722925
10
0.0694802179989
20
0.0389783757741
10
0.0651882337397
20
0.0534720792555
10
0.0608962494804
20
0.0679657827369
10
0.0566042652208
20
0.0824594862183
0
LWPOLYLINE
8
aux_beam_width
70
0
90
10
10
0.168697756073
20
-0.0262286518164
10
0.16440577225
20
-0.0117349482055
10
0.160113788429
20
0.00275875540536
10
0.155821804607
20
0.0172524590163
10
0.151529820785
20
0.0317461626274
10
0.147237836964
20
0.0462398662385
10
0.142945853143
20
0.0607335698497
10
0.138653869322
20
0.0752272734609
10
0.134361885501
20
0.0897209770722
10
0.130069901681
20
0.104214680684
0
LINE
8
aux_beam
10
0.0933370834509
20
0.0933370834509
11
-0.541675806008
21
30.086615641
0
LWPOLYLINE
8
aux_beam_width
70
0
90
10
10
0.0588165126183
20
0.0926062194546
10
-0.0117405277412
20
3.42519272473
10
-0.0822975990664
20
6.75777922936
10
-0.152854701357
20
10.0903657333
10
-0.223411834613
20
13.4229522366
10
-0.293968998833
20
16.7555387393
10
-0.364526194018
20
20.0881252413
10
-0.435083420166
20
23.4207117426
10
-0.505640677277
20
26.7532982433
10
-0.576197965351
20
30.0858847434
0
LWPOLYLINE
8
aux_beam_width
70
0
90
10
10
0.127857654284
20
0.0940679474473
10
0.0573007192078
20
3.42665445496
10
-0.0132561849023
20
6.75924096312
10
-0.0838130580469
20
10.0918274719
10
-0.154369900226
20
13.4244139814
10
-0.224926711441
20
16.7570004915
10
-0.295483491692
20
20.0895870023
10
-0.366040240979
20
23.4221735138
10
-0.436596959303
20
26.7547600259
10
-0.507153646665
20
30.0873465386
0
LINE
8
aux_beam
10
26.339120581
20
-0.106015772105
11
26.4891205797
21
-0.10426077803
0
LWPOLYLINE
8
aux_beam_width
70
0
90
10
10
26.3387181992
20
-0.0716240555978
10
26.3553848658
20
-0.0714290572255
10
26.3720515323
20
-0.0712340588527
10
26.3887181988
20
-0.0710390604796
10
26.4053848654
20
-0.0708440621062
10
26.4220515319
20
-0.0706490637323
10
26.4387181984
20
-0.0704540653581
10
26.455384865
20
-0.0702590669835
10
26.4720515315
20
-0.0700640686086
10
26.488718198
20
-0.0698690702332
0
LWPOLYLINE
8
aux_beam_width
70
0
90
10
10
26.3395229627
20
-0.140407488613
10
26.3561896292
20
-0.140212488302
10
26.3728562957
20
-0.140017487991
10
26.3895229622
20
-0.139822487681
10
26.4061896287
20
-0.139627487371
10
26.4228562952
20
-0.139432487061
10
26.4395229618
20
-0.139237486752
10
26.4561896283
20
-0.139042486443
10
26.4728562948
20
-0.138847486134
10
26.4895229613
20
-0.138652485826
0
LINE
8
aux_beam
10
26.3391000426
20
-0.102505543656
11
-3.65513860371
21
0.485412842716
0
LWPOLYLINE
8
aux_beam_width
70
0
90
10
10
26.3384260702
20
-0.136890059559
10
23.0057328924
20
-0.071565530912
10
19.6730397141
20
-0.00624103359566
10
16.3403465351
20
0.0590834323894
10
13.0076533555
20
0.124407867043
10
9.67496017525
20
0.189732270364
10
6.34226699443
20
0.255056642352
10
3.00957381298
20
0.320380983007
10
-0.323119369072
20
0.38570529233
10
-3.65581255174
20
0.451029570318
0
LWPOLYLINE
8
aux_beam_width
70
0
90
10
10
26.339774015
20
-0.068121027753
10
23.0070808269
20
-0.00279702609513
10
19.6743876394
20
0.0625270068933
10
16.3416944526
20
0.127851071213
10
13.0090012663
20
0.193175166865
10
9.6763080807
20
0.258499293848
10
6.34361489568
20
0.323823452165
10
3.01092171128
20
0.389147641814
10
-0.32177147251
20
0.454471862797
10
-3.65446465568
20
0.519796115113
0
LINE
8
aux_beam
10
0.0572189417716
20
23.0761456069
11
-0.526523334319
21
-6.91817460465
0
LWPOLYLINE
8
aux_beam_width
70
0
90
10
10
0.0914632759751
20
23.0754791519
10
0.0266027889828
20
19.7427769107
10
-0.0382576662951
20
16.4100746689
10
-0.103118089858
20
13.0773724265
10
-0.167978481706
20
9.74467018349
10
-0.232838841838
20
6.41196793985
10
-0.297699170254
20
3.07926569559
10
-0.362559466954
20
-0.253436549292
10
-0.427419731938
20
-3.58613879479
10
-0.492279965205
20
-6.9188410409
0
LWPOLYLINE
8
aux_beam_width
70
0
90
10
10
0.0229746075681
20
23.076812062
10
-0.0418854112376
20
19.7441098117
10
-0.106745461758
20
16.411407562
10
-0.171605543993
20
13.078705313
10
-0.236465657943
20
9.74600306451
10
-0.301325803609
20
6.4133008167
10
-0.36618598099
20
3.08059856949
10
-0.431046190088
20
-0.25210367709
10
-0.495906430903
20
-3.58480592306
10
-0.560766703434
20
-6.91750816841
0
LINE
8
aux_beam
10
0.0607048051668
20
23.0761658364
11
0.0589619909898
21
23.2261658347
0
LWPOLYLINE
8
aux_beam_width
70
0
90
10
10
0.026453416576
20
23.0757678777
10
0.0262597714251
20
23.0924345442
10
0.0260661262737
20
23.1091012107
10
0.025872481122
20
23.1257678771
10
0.02567883597
20
23.1424345436
10
0.0254851908175
20
23.1591012101
10
0.0252915456647
20
23.1757678766
10
0.0250979005115
20
23.1924345431
10
0.0249042553579
20
23.2091012096
10
0.0247106102039
20
23.2257678761
0
LWPOLYLINE
8
aux_beam_width
70
0
90
10
10
0.0949561937575
20
23.0765637951
10
0.0947625468691
20
23.0932304616
10
0.0945688999811
20
23.109897128
10
0.0943752530935
20
23.1265637945
10
0.0941816062063
20
23.143230461
10
0.0939879593194
20
23.1598971274
10
0.0937943124329
20
23.1765637939
10
0.0936006655468
20
23.1932304604
10
0.093407018661
20
23.2098971268
10
0.0932133717757
20
23.2265637933
0
LINE
8
aux_beam
10
0.0589619909898
20
23.2261658347
11
0.0572189417716
21
23.0761456069
0
LWPOLYLINE
8
aux_beam_width
70
0
90
10
10
0.0932133717757
20
23.2257678761
10
0.0930196987749
20
23.2090989619
10
0.0928260257745
20
23.1924300477
10
0.0926323527744
20
23.1757611335
10
0.0924386797748
20
23.1590922193
10
0.0922450067755
20
23.1424233051
10
0.0920513337766
20
23.125754391
10
0.091857660778
20
23.1090854768
10
0.0916639877799
20
23.0924165626
10
0.0914703147821
20
23.0757476484
0
LWPOLYLINE
8
aux_beam_width
70
0
90
10
10
0.0247106102039
20
23.2265637933
10
0.024516938934
20
23.2098948791
10
0.0243232676637
20
23.1932259649
10
0.024129596393
20
23.1765570507
10
0.023935925122
20
23.1598881365
10
0.0237422538506
20
23.1432192223
10
0.0235485825788
20
23.1265503081
10
0.0233549113066
20
23.1098813939
10
0.023161240034
20
23.0932124797
10
0.0229675687611
20
23.0765435655
0
LINE
8
aux_beam
10
26.4891205797
20
-0.10426077803
11
26.3391000426
21
-0.102505543656
0
LWPOLYLINE
8
aux_beam_width
70
0
90
10
10
26.488718198
20
-0.138652485826
10
26.4720492495
20
-0.138457458819
10
26.4553803009
20
-0.138262431811
10
26.4387113524
20
-0.138067404804
10
26.4220424038
20
-0.137872377798
10
26.4053734553
20
-0.137677350792
10
26.3887045067
20
-0.137482323786
10
26.3720355582
20
-0.13728729678
10
26.3553666096
20
-0.137092269775
10
26.3386976611
20
-0.136897242771
0
LWPOLYLINE
8
aux_beam_width
70
0
90
10
10
26.4895229613
20
-0.0698690702332
10
26.4728540127
20
-0.0696740451578
10
26.4561850641
20
-0.0694790200821
10
26.4395161156
20
-0.069283995006
10
26.422847167
20
-0.0690889699295
10
26.4061782184
20
-0.0688939448526
10
26.3895092698
20
-0.0686989197753
10
26.3728403213
20
-0.0685038946977
10
26.3561713727
20
-0.0683088696197
10
26.3395024241
20
-0.0681138445414
0
LINE
8
aux_beam
10
-0.0969408404086
20
-0.0969408404086
11
-20.0897454428
21
-0.63337735121
0
LWPOLYLINE
8
aux_beam_width
70
0
90
10
10
-0.0960300102327
20
-0.130887168383
10
-2.31745274413
20
-0.190491214168
10
-4.53887547763
20
-0.250095274419
10
-6.76029821075
20
-0.309699349136
10
-8.98172094348
20
-0.369303438319
10
-11.2031436758
20
-0.428907541968
10
-13.4245664078
20
-0.488511660082
10
-15.6459891393
20
-0.548115792663
10
-17.8674118705
20
-0.607719939709
10
-20.0888346013
20
-0.667324101221
0
LWPOLYLINE
8
aux_beam_width
70
0
90
10
10
-0.0978516705846
20
-0.0629945124338
10
-2.31927440389
20
-0.12259858016
10
-4.54069713758
20
-0.182202633421
10
-6.76211987167
20
-0.241806672215
10
-8.98354260614
20
-0.301410696544
10
-11.204965341
20
-0.361014706406
10
-13.4263880762
20
-0.420618701803
10
-15.6478108119
20
-0.480222682734
10
-17.8692335479
20
-0.539826649199
10
-20.0906562843
20
-0.599430601199
0
LINE
8
aux_beam
10
0.0374789572554
20
-0.132864634051
11
-0.0969408404086
21
-0.0969408404086
0
LWPOLYLINE
8
aux_beam_width
70
0
90
10
10
0.0275878360346
20
-0.169875271803
10
0.0126523030196
20
-0.165883738956
10
-0.00228322999553
20
-0.16189220611
10
-0.0172187630107
20
-0.157900673263
10
-0.0321542960259
20
-0.153909140417
10
-0.0470898290412
20
-0.149917607572
10
-0.0620253620565
20
-0.145926074726
10
-0.0769608950719
20
-0.141934541881
10
-0.0918964280874
20
-0.137943009035
10
-0.106831961103
20
-0.133951476191
0
LWPOLYLINE
8
aux_beam_width
70
0
90
10
10
0.0473700784763
20
-0.0958539962982
10
0.0324345453438
20
-0.0918624638913
10
0.0174990122113
20
-0.087870931484
10
0.00256347907883
20
-0.0838793990766
10
-0.0123720540535
20
-0.0798878666689
10
-0.0273075871858
20
-0.0758963342609
10
-0.0422431203181
20
-0.0719048018527
10
-0.0571786534502
20
-0.0679132694443
10
-0.0721141865824
20
-0.0639217370356
10
-0.0870497197144
20
-0.0599302046267
0
LINE
8
green_beam
10
-2.70308293397
20
0.257457824925
11
-2.60070315986
21
0.259616550299
0
LWPOLYLINE
8
green_beam_width
70
0
90
14
10
-2.70321140343
20
0.263550621126
10
-2.69533551207
20
0.263691820403
10
-2.68745962073
20
0.263833019982
10
-2.67958372939
20
0.263974219867
10
-2.67170783806
20
0.264115420061
10
-2.66383194674
20
0.264256620569
10
-2.65595605542
20
0.264397821394
10
-2.64808016411
20
0.264539022541
10
-2.6402042728
20
0.264680224013
10
-2.63232838151
20
0.264821425815
10
-2.62445249022
20
0.264962627951
10
-2.61657659893
20
0.265103830425
10
-2.60870070766
20
0.265245033242
10
-2.60082481639
20
0.265386236405
0
LWPOLYLINE
8
green_beam_width
70
0
90
14
10
-2.70295446452
20
0.251365028724
10
-2.69507962139
20
0.251555941043
10
-2.68720477825
20
0.25174685306
10
-2.67932993511
20
0.251937764772
10
-2.67145509197
20
0.252128676173
10
-2.66358024881
20
0.252319587261
10
-2.65570540565
20
0.252510498032
10
-2.64783056248
20
0.252701408481
10
-2.63995571931
20
0.252892318604
10
-2.63208087613
20
0.253083228398
10
-2.62420603294
20
0.253274137858
10
-2.61633118975
20
0.25346504698
10
-2.60845634654
20
0.25365595576
10
-2.60058150333
20
0.253846864192
0
LINE
8
green_beam
10
-17.4598290497
20
0.211830832778
11
-17.5597730635
21
0.211535087535
0
LWPOLYLINE
8
green_beam_width
70
0
90
10
10
-17.4598080914
20
0.20474820197
10
-17.4709129787
20
0.204714293045
10
-17.482017866
20
0.204680383742
10
-17.4931227534
20
0.204646474062
10
-17.5042276407
20
0.204612564005
10
-17.515332528
20
0.20457865357
10
-17.5264374153
20
0.204544742758
10
-17.5375423027
20
0.204510831569
10
-17.54864719
20
0.204476920004
10
-17.5597520773
20
0.204443008062
0
LWPOLYLINE
8
green_beam_width
70
0
90
10
10
-17.4598500079
20
0.218913463586
10
-17.4709549015
20
0.218881651346
10
-17.482059795
20
0.218849839483
10
-17.4931646885
20
0.218818027998
10
-17.5042695821
20
0.218786216891
10
-17.5153744756
20
0.218754406161
10
-17.5264793691
20
0.218722595807
10
-17.5375842627
20
0.218690785831
10
-17.5486891562
20
0.218658976231
10
-17.5597940498
20
0.218627167008
0
LINE
8
green_beam
10
-2.70308293397
20
0.257457824925
11
-17.4598290497
21
0.211830832778
0
LWPOLYLINE
8
green_beam_width
70
0
90
10
10
-2.70306409159
20
0.251363795489
10
-4.34270252309
20
0.24628578713
10
-5.98234086971
20
0.241180326155
10
-7.62197913292
20
0.236047887592
10
-9.26161731521
20
0.230889278875
10
-10.90125542
20
0.225705590254
10
-12.5408934512
20
0.220498133093
10
-14.1805314135
20
0.215268373455
10
-15.8201693117
20
0.210017867686
10
-17.4598071506
20
0.204748204982
0
LWPOLYLINE
8
green_beam_width
70
0
90
10
10
-2.70310177635
20
0.263551854361
10
-4.34274025944
20
0.258490531132
10
-5.98237882742
20
0.253456660519
10
-7.62201747881
20
0.248449767493
10
-9.26165621111
20
0.243469044623
10
-10.901295021
20
0.238513401655
10
-12.5409339043
20
0.233581527227
10
-14.1805728566
20
0.228671955277
10
-15.820211873
20
0.223783129458
10
-17.4598509487
20
0.218913460574
0
LINE
8
green_beam
10
0.133579614821
20
-0.0354698293055
11
0.00212949074
21
0.00212949074
0
LWPOLYLINE
8
green_beam_width
70
0
90
10
10
0.117761826259
20
-0.0907700386355
10
0.103156255763
20
-0.0865923404429
10
0.0885506852661
20
-0.0824146422517
10
0.0739451147689
20
-0.0782369440619
10
0.0593395442713
20
-0.0740592458734
10
0.0447339737732
20
-0.0698815476862
10
0.0301284032749
20
-0.0657038495004
10
0.0155228327761
20
-0.061526151316
10
0.000917262276914
20
-0.0573484531329
10
-0.0136883082226
20
-0.0531707549511
0
LWPOLYLINE
8
green_beam_width
70
0
90
10
10
0.149397403384
20
0.0198303800245
10
0.134791835195
20
0.0240080862865
10
0.120186267007
20
0.0281857925498
10
0.10558069882
20
0.0323634988145
10
0.0909751306326
20
0.0365412050806
10
0.0763695624459
20
0.040718911348
10
0.0617639942595
20
0.0448966176167
10
0.0471584260735
20
0.0490743238868
10
0.0325528578879
20
0.0532520301583
10
0.0179472897026
20
0.0574297364311
0
LINE
8
green_beam
10
0.00212949074
20
0.00212949074
11
0.0400090718096
21
-0.130300447507
0
LWPOLYLINE
8
green_beam_width
70
0
90
10
10
0.0574297364311
20
0.0179472897026
10
0.0616385828492
20
0.00323285328584
10
0.0658474292687
20
-0.0114815831306
10
0.0700562756896
20
-0.0261960195466
10
0.0742651221118
20
-0.0409104559622
10
0.0784739685355
20
-0.0556248923775
10
0.0826828149604
20
-0.0703393287923
10
0.0868916613868
20
-0.0850537652068
10
0.0911005078145
20
-0.0997682016208
10
0.0953093542436
20
-0.114482638034
0
LWPOLYLINE
8
green_beam_width
70
0
90
10
10
-0.0531707549511
20
-0.0136883082226
10
-0.0489619166871
20
-0.0284027469718
10
-0.0447530784245
20
-0.0431171857214
10
-0.0405442401632
20
-0.0578316244713
10
-0.0363354019033
20
-0.0725460632217
10
-0.0321265636448
20
-0.0872605019724
10
-0.0279177253876
20
-0.101974940724
10
-0.0237088871319
20
-0.116689379475
10
-0.0195000488775
20
-0.131403818227
10
-0.0152912106244
20
-0.146118256979
0
LINE
8
green_beam
10
26.6891205797
20
-0.106014689514
11
26.4891205797
21
-0.10601540304
0
LWPOLYLINE
8
green_beam_width
70
0
90
10
10
26.6891207637
20
-0.157605808491
10
26.6668985415
20
-0.157605887701
10
26.6446763193
20
-0.157605966919
10
26.622454097
20
-0.157606046146
10
26.6002318748
20
-0.15760612538
10
26.5780096526
20
-0.157606204623
10
26.5557874304
20
-0.157606283875
10
26.5335652082
20
-0.157606363135
10
26.5113429859
20
-0.157606442403
10
26.4891207637
20
-0.157606521679
0
LWPOLYLINE
8
green_beam_width
70
0
90
10
10
26.6891203956
20
-0.054423570536
10
26.6668981734
20
-0.0544236498877
10
26.6446759512
20
-0.054423729231
10
26.6224537289
20
-0.054423808566
10
26.6002315067
20
-0.0544238878927
10
26.5780092845
20
-0.0544239672109
10
26.5557870623
20
-0.0544240465209
10
26.53356484
20
-0.0544241258225
10
26.5113426178
20
-0.0544242051157
10
26.4891203956
20
-0.0544242844005
0
LINE
8
green_beam
10
-0.0804283697577
20
-14.8947761597
11
0.278770171147
21
-2.83754072799
0
LWPOLYLINE
8
green_beam_width
70
0
90
100
10
-0.131577582218
20
-14.8932523674
10
-0.127493827596
20
-14.77147568
10
-0.123410073238
20
-14.6496989925
10
-0.119326319152
20
-14.5279223051
10
-0.115242565345
20
-14.4061456176
10
-0.111158811825
20
-14.2843689301
10
-0.1070750586
20
-14.1625922427
10
-0.102991305678
20
-14.0408155552
10
-0.0989075530687
20
-13.9190388677
10
-0.0948238007805
20
-13.7972621802
10
-0.090740048823
20
-13.6754854927
10
-0.0866562972059
20
-13.5537088052
10
-0.0825725459396
20
-13.4319321176
10
-0.0784887950344
20
-13.3101554301
10
-0.0744050445015
20
-13.1883787425
10
-0.0703212943524
20
-13.066602055
10
-0.066237544599
20
-12.9448253674
10
-0.0621537952538
20
-12.8230486798
10
-0.0580700463297
20
-12.7012719922
10
-0.0539862978403
20
-12.5794953046
10
-0.0499025497997
20
-12.457718617
10
-0.0458188022227
20
-12.3359419293
10
-0.0417350551246
20
-12.2141652417
10
-0.0376513085216
20
-12.092388554
10
-0.0335675624305
20
-11.9706118663
10
-0.0294838168689
20
-11.8488351786
10
-0.0254000718551
20
-11.7270584909
10
-0.0213163274085
20
-11.6052818031
10
-0.0172325835492
20
-11.4835051154
10
-0.0131488402984
20
-11.3617284276
10
-0.00906509767827
20
-11.2399517398
10
-0.00498135571207
20
-11.118175052
10
-0.000897614424241
20
-10.9963983642
10
0.00318612615956
20
-10.8746216763
10
0.00726986601235
20
-10.7528449885
10
0.0113536051058
20
-10.6310683006
10
0.0154373434099
20
-10.5092916127
10
0.0195210808934
20
-10.3875149247
10
0.0236048175231
20
-10.2657382367
10
0.027688553264
20
-10.1439615488
10
0.0317722880793
20
-10.0221848607
10
0.03585602193
20
-9.90040817268
10
0.0399397547749
20
-9.7786314846
10
0.0440234865706
20
-9.65685479649
10
0.0481072172708
20
-9.53507810834
10
0.0521909468269
20
-9.41330142016
10
0.056274675187
20
-9.29152473195
10
0.0603584022961
20
-9.1697480437
10
0.064442128096
20
-9.04797135541
10
0.0685258525245
20
-8.92619466707
10
0.0726095755156
20
-8.8044179787
10
0.076693296999
20
-8.68264129028
10
0.0807770168997
20
-8.56086460181
10
0.0848607351376
20
-8.4390879133
10
0.0889444516271
20
-8.31731122473
10
0.0930281662768
20
-8.19553453611
10
0.0971118789885
20
-8.07375784743
10
0.101195589657
20
-7.95198115869
10
0.10527929817
20
-7.83020446988
10
0.109363004405
20
-7.70842778101
10
0.113446708233
20
-7.58665109206
10
0.117530409512
20
-7.46487440304
10
0.12161410809
20
-7.34309771394
10
0.125697803803
20
-7.22132102475
10
0.129781496473
20
-7.09954433547
10
0.133865185908
20
-6.9777676461
10
0.137948871897
20
-6.85599095662
10
0.142032554212
20
-6.73421426704
10
0.146116232604
20
-6.61243757733
10
0.150199906802
20
-6.4906608875
10
0.154283576509
20
-6.36888419754
10
0.158367241398
20
-6.24710750744
10
0.16245090111
20
-6.12533081718
10
0.166534555251
20
-6.00355412675
10
0.170618203385
20
-5.88177743615
10
0.174701845027
20
-5.76000074535
10
0.178785479642
20
-5.63822405434
10
0.182869106633
20
-5.51644736311
10
0.186952725333
20
-5.39467067163
10
0.191036334996
20
-5.27289397988
10
0.195119934782
20
-5.15111728783
10
0.199203523745
20
-5.02934059546
10
0.203287100814
20
-4.90756390274
10
0.207370664772
20
-4.78578720963
10
0.21145421423
20
-4.66401051609
10
0.215537747595
20
-4.54223382206
10
0.219621263033
20
-4.42045712751
10
0.22370475842
20
-4.29868043235
10
0.227788231282
20
-4.17690373652
10
0.231871678721
20
-4.05512703994
10
0.235955097321
20
-3.9333503425
10
0.240038483024
20
-3.81157364408
10
0.244121830975
20
-3.68979694453
10
0.248205135315
20
-3.56802024368
10
0.252288388904
20
-3.44624354132
10
0.256371582957
20
-3.32446683719
10
0.260454706541
20
-3.20269013096
10
0.264537745871
20
-3.08091342222
10
0.268620683318
20
-2.95913671044
10
0.272703495975
20
-2.83735999495
0
LWPOLYLINE
8
green_beam_width
70
0
90
100
10
-0.0292791572971
20
-14.896299952
10
-0.0261063757394
20
-14.7744961256
10
-0.0229335939174
20
-14.6526922993
10
-0.0197608118237
20
-14.530888473
10
-0.0165880294509
20
-14.4090846467
10
-0.0134152467912
20
-14.2872808204
10
-0.0102424638363
20
-14.1654769941
10
-0.00706968057808
20
-14.0436731678
10
-0.00389689700763
20
-13.9218693415
10
-0.00072411311592
20
-13.8000655152
10
0.00244867110646
20
-13.678261689
10
0.00562145566931
20
-13.5564578627
10
0.00879424058282
20
-13.4346540365
10
0.0119670258576
20
-13.3128502103
10
0.0151398115046
20
-13.191046384
10
0.0183125975354
20
-13.0692425578
10
0.0214853839618
20
-12.9474387316
10
0.0246581707965
20
-12.8256349055
10
0.0278309580523
20
-12.7038310793
10
0.0310037457428
20
-12.5820272531
10
0.0341765338821
20
-12.460223427
10
0.0373493224849
20
-12.3384196009
10
0.0405221115668
20
-12.2166157747
10
0.0436949011437
20
-12.0948119486
10
0.0468676912324
20
-11.9730081226
10
0.0500404818507
20
-11.8512042965
10
0.0532132730168
20
-11.7294004704
10
0.0563860647501
20
-11.6075966444
10
0.0595588570707
20
-11.4857928184
10
0.0627316499998
20
-11.3639889924
10
0.0659044435595
20
-11.2421851664
10
0.0690772377732
20
-11.1203813404
10
0.0722500326653
20
-10.9985775145
10
0.0754228282614
20
-10.8767736886
10
0.0785956245885
20
-10.7549698627
10
0.0817684216749
20
-10.6331660368
10
0.0849412195506
20
-10.5113622109
10
0.088114018247
20
-10.3895583851
10
0.0912868177972
20
-10.2677545593
10
0.0944596182362
20
-10.1459507335
10
0.0976324196008
20
-10.0241469078
10
0.10080522193
20
-9.90234308205
10
0.103978025265
20
-9.78053925636
10
0.107150829649
20
-9.6587354307
10
0.110323635129
20
-9.53693160508
10
0.113496441753
20
-9.41512777949
10
0.116669249573
20
-9.29332395393
10
0.119842058643
20
-9.17152012841
10
0.123014869023
20
-9.04971630293
10
0.126187680775
20
-8.92791247749
10
0.129360493963
20
-8.80610865209
10
0.13253330866
20
-8.68430482674
10
0.135706124939
20
-8.56250100143
10
0.138878942881
20
-8.44069717618
10
0.142051762571
20
-8.31889335097
10
0.145224584102
20
-8.19708952583
10
0.14839740757
20
-8.07528570073
10
0.151570233081
20
-7.9534818757
10
0.154743060748
20
-7.83167805074
10
0.157915890693
20
-7.70987422584
10
0.161088723045
20
-7.58807040101
10
0.164261557946
20
-7.46626657626
10
0.167434395548
20
-7.34446275159
10
0.170607236014
20
-7.22265892701
10
0.173780079524
20
-7.10085510252
10
0.17695292627
20
-6.97905127812
10
0.180125776461
20
-6.85724745382
10
0.183298630326
20
-6.73544362964
10
0.186471488113
20
-6.61363980557
10
0.189644350094
20
-6.49183598163
10
0.192817216568
20
-6.37003215782
10
0.195990087859
20
-6.24822833415
10
0.199162964326
20
-6.12642451064
10
0.202335846365
20
-6.00462068729
10
0.205508734412
20
-5.88281686413
10
0.208681628949
20
-5.76101304115
10
0.211854530514
20
-5.63920921839
10
0.215027439703
20
-5.51740539585
10
0.218200357183
20
-5.39560157356
10
0.2213732837
20
-5.27379775154
10
0.224546220094
20
-5.15199392981
10
0.227719167311
20
-5.03019010841
10
0.230892126421
20
-4.90838628736
10
0.234065098643
20
-4.7865824667
10
0.237238085365
20
-4.66477864647
10
0.24041108818
20
-4.54297482672
10
0.243584108922
20
-4.42117100751
10
0.246757149715
20
-4.29936718889
10
0.249930213033
20
-4.17756337095
10
0.253103301774
20
-4.05575955376
10
0.256276419354
20
-3.93395573743
10
0.25944956983
20
-3.81215192208
10
0.262622758059
20
-3.69034810786
10
0.2657959899
20
-3.56854429493
10
0.26896927249
20
-3.44674048352
10
0.272142614616
20
-3.32493667388
10
0.275316027212
20
-3.20313286634
10
0.278489524063
20
-3.08132906131
10
0.281663122796
20
-2.95952525931
10
0.284836846318
20
-2.83772146104
0
LINE
8
green_beam
10
26.339120581
20
-0.106015769402
11
0.133579614821
21
-0.0354698293055
0
LWPOLYLINE
8
green_beam_width
70
0
90
10
10
26.3389816983
20
-0.157606201049
10
23.4272549241
20
-0.149767840027
10
20.5155281495
20
-0.141929622421
10
17.6038013745
20
-0.134091548228
10
14.6920745991
20
-0.126253617447
10
11.7803478233
20
-0.118415830072
10
8.86862104716
20
-0.110578186098
10
5.95689427063
20
-0.102740685519
10
3.0451674937
20
-0.094903328327
10
0.133440716393
20
-0.0870661145126
0
LWPOLYLINE
8
green_beam_width
70
0
90
10
10
26.3392594636
20
-0.0544253377542
10
23.4275326898
20
-0.0465868231994
10
20.5158059164
20
-0.0387481652289
10
17.6040791434
20
-0.0309093638444
10
14.6923523707
20
-0.023070419049
10
11.7806255984
20
-0.015231330847
10
8.86889882657
20
-0.00739209924367
10
5.95717205507
20
0.00044727575426
10
3.04544528397
20
0.008286794139
10
0.13371851325
20
0.0161264559016
0
LINE
8
green_beam
10
0.0400090718096
20
-0.130300447507
11
-0.0804283697577
21
-14.8947761597
0
LWPOLYLINE
8
green_beam_width
70
0
90
10
10
0.0911707183934
20
-0.130717785578
10
0.077789544371
20
-1.77121509316
10
0.064408417043
20
-3.41171240113
10
0.0510273364072
20
-5.05220970947
10
0.0376463024612
20
-6.6927070182
10
0.0242653152025
20
-8.33320432731
10
0.0108843746286
20
-9.9737016368
10
-0.00249651926326
20
-11.6141989467
10
-0.015877366476
20
-13.2546962569
10
-0.0292581670125
20
-14.8951935676
0
LWPOLYLINE
8
green_beam_width
70
0
90
10
10
-0.0111525747742
20
-0.129883109435
10
-0.0245352766557
20
-1.77038040456
10
-0.0379180252315
20
-3.4108776993
10
-0.0513008204995
20
-5.05137499366
10
-0.0646836624573
20
-6.69187228764
10
-0.0780665511025
20
-8.33236958123
10
-0.0914494864325
20
-9.97286687445
10
-0.104832468444
20
-11.6133641673
10
-0.118215497136
20
-13.2538614597
10
-0.131598572503
20
-14.8943587518
0
LINE
8
green_beam
10
0.14268715771
20
-17.254946618
11
0.141785649353
21
-17.355018377
0
LWPOLYLINE
8
green_beam_width
70
0
90
10
10
0.149725913713
20
-17.2550100275
10
0.149626793284
20
-17.2661291213
10
0.14952767324
20
-17.277248215
10
0.149428553583
20
-17.2883673088
10
0.14932943431
20
-17.2994864026
10
0.149230315423
20
-17.3106054963
10
0.149131196921
20
-17.3217245901
10
0.149032078805
20
-17.3328436839
10
0.148932961072
20
-17.3439627777
10
0.148833843725
20
-17.3550818715
0
LWPOLYLINE
8
green_beam_width
70
0
90
10
10
0.135648401706
20
-17.2548832085
10
0.135547186945
20
-17.2660022834
10
0.135445971798
20
-17.2771213583
10
0.135344756266
20
-17.2882404332
10
0.135243540348
20
-17.2993595081
10
0.135142324045
20
-17.310478583
10
0.135041107356
20
-17.3215976579
10
0.134939890283
20
-17.3327167328
10
0.134838672825
20
-17.3438358076
10
0.134737454982
20
-17.3549548825
0
LINE
8
green_beam
10
26.4891205797
20
-0.10601540304
11
26.339120581
21
-0.106015769402
0
LWPOLYLINE
8
green_beam_width
70
0
90
10
10
26.4891207057
20
-0.15760652168
10
26.4724540391
20
-0.157606562388
10
26.4557873726
20
-0.157606603098
10
26.4391207061
20
-0.15760664381
10
26.4224540396
20
-0.157606684525
10
26.405787373
20
-0.157606725242
10
26.3891207065
20
-0.157606765961
10
26.37245404
20
-0.157606806682
10
26.3557873735
20
-0.157606847405
10
26.339120707
20
-0.157606888131
0
LWPOLYLINE
8
green_beam_width
70
0
90
10
10
26.4891204537
20
-0.0544242844003
10
26.4724537871
20
-0.0544243251061
10
26.4557871206
20
-0.0544243658096
10
26.4391204541
20
-0.054424406511
10
26.4224537876
20
-0.0544244472101
10
26.405787121
20
-0.0544244879071
10
26.3891204545
20
-0.0544245286018
10
26.372453788
20
-0.0544245692944
10
26.3557871215
20
-0.0544246099847
10
26.3391204549
20
-0.0544246506729
0
LINE
8
green_beam
10
0.278770171147
20
-2.83754072799
11
0.14268715771
21
-17.254946618
0
LWPOLYLINE
8
green_beam_width
70
0
90
10
10
0.284839267496
20
-2.83759801298
10
0.269728564643
20
-4.43953209167
10
0.254644381221
20
-6.04146642068
10
0.239586251716
20
-7.6434009956
10
0.224553399724
20
-9.24533580912
10
0.209544784239
20
-10.8472708514
10
0.1945591569
20
-12.4492061107
10
0.179595123474
20
-14.0511415737
10
0.164651203573
20
-15.6530772267
10
0.149725884058
20
-17.2550130551
0
LWPOLYLINE
8
green_beam_width
70
0
90
10
10
0.272701074797
20
-2.837483443
10
0.257571107998
20
-4.43941733987
10
0.242414621767
20
-6.04135098643
10
0.227232081619
20
-7.64328438706
10
0.212024263959
20
-9.24521754911
10
0.196792209791
20
-10.8471504824
10
0.181537167477
20
-12.4490831987
10
0.16626053125
20
-14.0510157112
10
0.150963781499
20
-15.6529480338
10
0.135648431361
20
-17.2548801809
0
LINE
8
green_beam
10
-2.60070315986
20
0.259616550299
11
-2.49832655996
21
0.26192090166
0
LWPOLYLINE
8
green_beam_width
70
0
90
14
10
-2.6008330229
20
0.265386042004
10
-2.59295708275
20
0.265526999218
10
-2.58508114263
20
0.265667957197
10
-2.57720520252
20
0.265808915954
10
-2.56932926243
20
0.265949875506
10
-2.56145332235
20
0.266090835867
10
-2.5535773823
20
0.266231797053
10
-2.54570144226
20
0.266372759081
10
-2.53782550225
20
0.266513721967
10
-2.52994956225
20
0.266654685728
10
-2.52207362228
20
0.266795650383
10
-2.51419768232
20
0.266936615949
10
-2.50632174239
20
0.267077582444
10
-2.49844580247
20
0.267218549889
0
LWPOLYLINE
8
green_beam_width
70
0
90
14
10
-2.60057329682
20
0.253847058594
10
-2.59269899083
20
0.254060616973
10
-2.58482468482
20
0.254274174589
10
-2.57695037879
20
0.254487731425
10
-2.56907607274
20
0.254701287468
10
-2.56120176668
20
0.254914842701
10
-2.55332746059
20
0.255128397109
10
-2.54545315449
20
0.255341950675
10
-2.53757884837
20
0.255555503383
10
-2.52970454222
20
0.255769055215
10
-2.52183023606
20
0.255982606155
10
-2.51395592988
20
0.256196156183
10
-2.50608162367
20
0.256409705281
10
-2.49820731745
20
0.256623253431
0
LINE
8
green_beam
10
0.00212949074
20
0.00212949074
11
-14.7623498218
21
-0.0374578909087
0
LWPOLYLINE
8
green_beam_width
70
0
90
10
10
0.00226726224279
20
-0.0492536626282
10
-1.63823043712
20
-0.053653018824
10
-3.27872813635
20
-0.0580524211007
10
-4.91922583547
20
-0.062451869456
10
-6.55972353446
20
-0.0668513638877
10
-8.20022123332
20
-0.0712509043933
10
-9.84071893207
20
-0.0756504909703
10
-11.4812166307
20
-0.0800501236161
10
-13.1217143292
20
-0.0844498023279
10
-14.7622120276
20
-0.0888495271027
0
LWPOLYLINE
8
green_beam_width
70
0
90
10
10
0.00199171923722
20
0.0535126441082
10
-1.63850598419
20
0.0491148043821
10
-3.27900368774
20
0.0447170107368
10
-4.91950139141
20
0.0403192631702
10
-6.55999909521
20
0.0359215616799
10
-8.20049679913
20
0.0315239062636
10
-9.84099450317
20
0.0271262969187
10
-11.4814922073
20
0.0227287336425
10
-13.1219899116
20
0.0183312164323
10
-14.762487616
20
0.0139337452852
0
LINE
8
green_beam
10
0.141785649353
20
-17.355018377
11
0.14063659445
21
-17.4550875997
0
LWPOLYLINE
8
green_beam_width
70
0
90
10
10
0.148833607842
20
-17.3550993059
10
0.148707469836
20
-17.366218126
10
0.14858133265
20
-17.3773369462
10
0.148455196284
20
-17.3884557664
10
0.148329060736
20
-17.3995745865
10
0.148202926006
20
-17.4106934067
10
0.148076792094
20
-17.4218122269
10
0.147950658999
20
-17.4329310471
10
0.147824526721
20
-17.4440498673
10
0.147698395258
20
-17.4551686876
0
LWPOLYLINE
8
green_beam_width
70
0
90
10
10
0.134737690865
20
-17.3549374481
10
0.134608483337
20
-17.366056233
10
0.134479274989
20
-17.3771750179
10
0.134350065821
20
-17.3882938028
10
0.134220855835
20
-17.3994125877
10
0.134091645031
20
-17.4105313725
10
0.133962433409
20
-17.4216501574
10
0.13383322097
20
-17.4327689422
10
0.133704007714
20
-17.4438877271
10
0.133574793643
20
-17.4550065119
0
LINE
8
green_beam
10
-14.7623498218
20
-0.0374578909087
11
-2.70308293397
21
0.257457824925
0
LWPOLYLINE
8
green_beam_width
70
0
90
100
10
-14.7636062602
20
0.0139185688818
10
-14.6417842946
20
0.0164399931119
10
-14.519962329
20
0.018961417603
10
-14.3981403634
20
0.0214828423621
10
-14.2763183978
20
0.0240042673968
10
-14.1544964322
20
0.0265256927148
10
-14.0326744667
20
0.029047118324
10
-13.9108525011
20
0.0315685442327
10
-13.7890305356
20
0.0340899704496
10
-13.66720857
20
0.0366113969836
10
-13.5453866045
20
0.039132823844
10
-13.423564639
20
0.0416542510404
10
-13.3017426735
20
0.044175678583
10
-13.179920708
20
0.0466971064822
10
-13.0580987425
20
0.0492185347489
10
-12.936276777
20
0.0517399633943
10
-12.8144548115
20
0.0542613924304
10
-12.692632846
20
0.0567828218693
10
-12.5708108806
20
0.059304251724
10
-12.4489889151
20
0.0618256820077
10
-12.3271669497
20
0.0643471127345
10
-12.2053449843
20
0.0668685439189
10
-12.0835230189
20
0.069389975576
10
-11.9617010534
20
0.0719114077219
10
-11.8398790881
20
0.074432840373
10
-11.7180571227
20
0.0769542735467
10
-11.5962351573
20
0.0794757072613
10
-11.474413192
20
0.0819971415357
10
-11.3525912266
20
0.0845185763898
10
-11.2307692613
20
0.0870400118446
10
-11.108947296
20
0.089561447922
10
-10.9871253307
20
0.0920828846448
10
-10.8653033654
20
0.0946043220373
10
-10.7434814002
20
0.0971257601247
10
-10.6216594349
20
0.0996471989337
10
-10.4998374697
20
0.102168638492
10
-10.3780155045
20
0.10469007883
10
-10.2561935393
20
0.107211519978
10
-10.1343715742
20
0.109732961968
10
-10.012549609
20
0.112254404836
10
-9.89072764392
20
0.114775848618
10
-9.76890567883
20
0.117297293352
10
-9.64708371376
20
0.119818739079
10
-9.52526174871
20
0.122340185841
10
-9.4034397837
20
0.124861633685
10
-9.28161781871
20
0.127383082658
10
-9.15979585374
20
0.129904532812
10
-9.03797388881
20
0.1324259842
10
-8.91615192391
20
0.134947436881
10
-8.79432995905
20
0.137468890916
10
-8.67250799421
20
0.13999034637
10
-8.55068602942
20
0.142511803312
10
-8.42886406466
20
0.145033261816
10
-8.30704209994
20
0.147554721962
10
-8.18522013527
20
0.150076183834
10
-8.06339817064
20
0.152597647522
10
-7.94157620605
20
0.155119113123
10
-7.81975424152
20
0.157640580741
10
-7.69793227704
20
0.160162050487
10
-7.57611031261
20
0.162683522481
10
-7.45428834824
20
0.165204996852
10
-7.33246638393
20
0.16772647374
10
-7.21064441969
20
0.170247953293
10
-7.08882245552
20
0.172769435674
10
-6.96700049142
20
0.17529092106
10
-6.84517852739
20
0.17781240964
10
-6.72335656346
20
0.180333901621
10
-6.60153459961
20
0.182855397229
10
-6.47971263585
20
0.18537689671
10
-6.3578906722
20
0.187898400331
10
-6.23606870865
20
0.190419908386
10
-6.11424674522
20
0.192941421197
10
-5.99242478192
20
0.195462939118
10
-5.87060281875
20
0.19798446254
10
-5.74878085572
20
0.200505991893
10
-5.62695889285
20
0.203027527654
10
-5.50513693016
20
0.205549070353
10
-5.38331496764
20
0.208070620579
10
-5.26149300533
20
0.210592178989
10
-5.13967104323
20
0.213113746322
10
-5.01784908137
20
0.215635323407
10
-4.89602711978
20
0.218156911176
10
-4.77420515847
20
0.220678510688
10
-4.65238319748
20
0.223200123145
10
-4.53056123683
20
0.225721749918
10
-4.40873927658
20
0.22824339258
10
-4.28691731676
20
0.230765052942
10
-4.16509535742
20
0.233286733101
10
-4.04327339863
20
0.235808435502
10
-3.92145144045
20
0.238330163004
10
-3.79962948297
20
0.240851918982
10
-3.67780752628
20
0.243373707442
10
-3.5559855705
20
0.245895533181
10
-3.43416361578
20
0.248417401985
10
-3.31234166228
20
0.250939320904
10
-3.19051971022
20
0.253461298616
10
-3.06869775987
20
0.255983345921
10
-2.94687581154
20
0.258505476435
10
-2.82505386568
20
0.261027707572
10
-2.70323192283
20
0.263550061963
0
LWPOLYLINE
8
green_beam_width
70
0
90
100
10
-14.7610933834
20
-0.0888343506993
10
-14.6392937958
20
-0.0853978816802
10
-14.5174942081
20
-0.0819614129221
10
-14.3956946203
20
-0.0785249444321
10
-14.2738950326
20
-0.0750884762176
10
-14.1520954449
20
-0.0716520082864
10
-14.0302958572
20
-0.0682155406464
10
-13.9084962695
20
-0.064779073306
10
-13.7866966817
20
-0.0613426062737
10
-13.664897094
20
-0.0579061395585
10
-13.5430975062
20
-0.0544696731697
10
-13.4212979184
20
-0.051033207117
10
-13.2994983307
20
-0.0475967414105
10
-13.1776987429
20
-0.0441602760605
10
-13.0558991551
20
-0.040723811078
10
-12.9340995673
20
-0.0372873464742
10
-12.8122999795
20
-0.0338508822611
10
-12.6905003916
20
-0.0304144184509
10
-12.5687008038
20
-0.0269779550564
10
-12.446901216
20
-0.023541492091
10
-12.3251016281
20
-0.0201050295686
10
-12.2033020403
20
-0.0166685675037
10
-12.0815024524
20
-0.0132321059117
10
-11.9597028645
20
-0.00979564480839
10
-11.8379032766
20
-0.00635918421032
10
-11.7161036887
20
-0.0029227241349
10
-11.5943041008
20
0.000513735399707
10
-11.4725045128
20
0.00395019437448
10
-11.3507049249
20
0.00738665276949
10
-11.2289053369
20
0.0108231105639
10
-11.1071057489
20
0.0142595677357
10
-10.9853061609
20
0.017696024262
10
-10.8635065729
20
0.0211324801187
10
-10.7417069849
20
0.0245689352805
10
-10.6199073968
20
0.0280053897206
10
-10.4981078087
20
0.0314418434112
10
-10.3763082207
20
0.0348782963227
10
-10.2545086325
20
0.038314748424
10
-10.1327090444
20
0.0417511996826
10
-10.0109094563
20
0.0451876500638
10
-9.8891098681
20
0.0486240995313
10
-9.7673102799
20
0.0520605480467
10
-9.64551069168
20
0.0554969955692
10
-9.52371110344
20
0.0589334420559
10
-9.40191151517
20
0.0623698874614
10
-9.28011192687
20
0.0658063317374
10
-9.15831233854
20
0.0692427748328
10
-9.03651275018
20
0.0726792166933
10
-8.91471316179
20
0.0761156572614
10
-8.79291357337
20
0.0795520964758
10
-8.67111398491
20
0.0829885342712
10
-8.54931439642
20
0.0864249705784
10
-8.42751480789
20
0.0898614053231
10
-8.30571521931
20
0.0932978384264
10
-8.1839156307
20
0.0967342698039
10
-8.06211604204
20
0.100170699365
10
-7.94031645334
20
0.103607127013
10
-7.81851686458
20
0.107043552644
10
-7.69671727577
20
0.110479976147
10
-7.57491768691
20
0.113916397402
10
-7.45311809799
20
0.11735281628
10
-7.33131850901
20
0.120789232642
10
-7.20951891996
20
0.124225646338
10
-7.08771933085
20
0.127662057206
10
-6.96591974166
20
0.13109846507
10
-6.84412015239
20
0.134534869739
10
-6.72232056304
20
0.137971271007
10
-6.6005209736
20
0.141407668648
10
-6.47872138406
20
0.144844062417
10
-6.35692179443
20
0.148280452045
10
-6.23512220469
20
0.151716837239
10
-6.11332261483
20
0.155153217677
10
-5.99152302484
20
0.158589593004
10
-5.86972343472
20
0.162025962832
10
-5.74792384446
20
0.165462326728
10
-5.62612425403
20
0.168898684216
10
-5.50432466344
20
0.172335034767
10
-5.38252507267
20
0.17577137779
10
-5.26072548169
20
0.179207712629
10
-5.1389258905
20
0.182644038545
10
-5.01712629907
20
0.18608035471
10
-4.89532670737
20
0.18951666019
10
-4.77352711539
20
0.192952953927
10
-4.6517275231
20
0.196389234719
10
-4.52992793045
20
0.199825501195
10
-4.40812833741
20
0.203261751783
10
-4.28632874394
20
0.20669798467
10
-4.16452914999
20
0.210134197759
10
-4.0427295555
20
0.213570388608
10
-3.92092996038
20
0.217006554355
10
-3.79913036458
20
0.220442691626
10
-3.67733076798
20
0.223878796415
10
-3.55553117046
20
0.227314863926
10
-3.4337315719
20
0.230750888371
10
-3.31193197211
20
0.2341868627
10
-3.19013237088
20
0.237622778238
10
-3.06833276794
20
0.241058624182
10
-2.94653316298
20
0.244494386917
10
-2.82473355555
20
0.247930049029
10
-2.70293394511
20
0.251365587888
0
LINE
8
green_beam
10
-17.5597730635
20
0.211535087535
11
-17.6597174554
21
0.211425946059
0
LWPOLYLINE
8
green_beam_width
70
0
90
10
10
-17.5597653188
20
0.204443014106
10
-17.5708702496
20
0.204429350865
10
-17.5819751803
20
0.204415686822
10
-17.5930801111
20
0.204402021976
10
-17.6041850418
20
0.204388356329
10
-17.6152899726
20
0.204374689881
10
-17.6263949033
20
0.204361022633
10
-17.6374998341
20
0.204347354584
10
-17.6486047648
20
0.204333685736
10
-17.6597096956
20
0.204320016089
0
LWPOLYLINE
8
green_beam_width
70
0
90
10
10
-17.5597808082
20
0.218627160964
10
-17.5708857423
20
0.218616570544
10
-17.5819906764
20
0.218605980926
10
-17.5930956106
20
0.21859539211
10
-17.6042005447
20
0.218584804096
10
-17.6153054788
20
0.218574216882
10
-17.6264104129
20
0.218563630469
10
-17.637515347
20
0.218553044856
10
-17.6486202811
20
0.218542460043
10
-17.6597252152
20
0.218531876029
0
LINE
8
green_beam
10
-2.60070315986
20
0.259616550299
11
-2.70308293397
21
0.257457824925
0
LWPOLYLINE
8
green_beam_width
70
0
90
14
10
-2.60058150333
20
0.253846864192
10
-2.60845634654
20
0.25365595576
10
-2.61633118975
20
0.25346504698
10
-2.62420603294
20
0.253274137858
10
-2.63208087613
20
0.253083228398
10
-2.63995571931
20
0.252892318604
10
-2.64783056248
20
0.252701408481
10
-2.65570540565
20
0.252510498032
10
-2.66358024881
20
0.252319587261
10
-2.67145509197
20
0.252128676173
10
-2.67932993511
20
0.251937764772
10
-2.68720477825
20
0.25174685306
10
-2.69507962139
20
0.251555941043
10
-2.70295446452
20
0.251365028724
0
LWPOLYLINE
8
green_beam_width
70
0
90
14
10
-2.60082481639
20
0.265386236405
10
-2.60870070766
20
0.265245033242
10
-2.61657659893
20
0.265103830425
10
-2.62445249022
20
0.264962627951
10
-2.63232838151
20
0.264821425815
10
-2.6402042728
20
0.264680224013
10
-2.64808016411
20
0.264539022541
10
-2.65595605542
20
0.264397821394
10
-2.66383194674
20
0.264256620569
10
-2.67170783806
20
0.264115420061
10
-2.67958372939
20
0.263974219867
10
-2.68745962073
20
0.263833019982
10
-2.69533551207
20
0.263691820403
10
-2.70321140343
20
0.263550621126
0
LINE
8
green_beam
10
0.0639969917871
20
23.0761849419
11
0.0639977777183
21
23.2261658347
0
LWPOLYLINE
8
green_beam_width
70
0
90
10
10
0.0126189461528
20
23.0761852111
10
0.0126190340817
20
23.0928497548
10
0.0126191220082
20
23.1095142984
10
0.0126192099326
20
23.1261788421
10
0.0126192978547
20
23.1428433857
10
0.0126193857746
20
23.1595079293
10
0.0126194736923
20
23.176172473
10
0.0126195616077
20
23.1928370166
10
0.0126196495209
20
23.2095015603
10
0.0126197374319
20
23.2261661039
0
LWPOLYLINE
8
green_beam_width
70
0
90
10
10
0.115375037421
20
23.0761846727
10
0.115375124144
20
23.0928492163
10
0.115375210869
20
23.1095137599
10
0.115375297596
20
23.1261783036
10
0.115375384325
20
23.1428428472
10
0.115375471057
20
23.1595073909
10
0.11537555779
20
23.1761719345
10
0.115375644526
20
23.1928364782
10
0.115375731264
20
23.2095010218
10
0.115375818005
20
23.2261655655
0
LINE
8
green_beam
10
-2.70308293397
20
0.257457824925
11
-14.7623498218
21
-0.0374578909087
0
LWPOLYLINE
8
green_beam_width
70
0
90
100
10
-2.70293394511
20
0.251365587888
10
-2.82473355555
20
0.247930049029
10
-2.94653316298
20
0.244494386917
10
-3.06833276794
20
0.241058624182
10
-3.19013237088
20
0.237622778238
10
-3.31193197211
20
0.2341868627
10
-3.4337315719
20
0.230750888371
10
-3.55553117046
20
0.227314863926
10
-3.67733076798
20
0.223878796415
10
-3.79913036458
20
0.220442691626
10
-3.92092996038
20
0.217006554355
10
-4.0427295555
20
0.213570388608
10
-4.16452914999
20
0.210134197759
10
-4.28632874394
20
0.20669798467
10
-4.40812833741
20
0.203261751783
10
-4.52992793045
20
0.199825501195
10
-4.6517275231
20
0.196389234719
10
-4.77352711539
20
0.192952953927
10
-4.89532670737
20
0.18951666019
10
-5.01712629907
20
0.18608035471
10
-5.1389258905
20
0.182644038545
10
-5.26072548169
20
0.179207712629
10
-5.38252507267
20
0.17577137779
10
-5.50432466344
20
0.172335034767
10
-5.62612425403
20
0.168898684216
10
-5.74792384446
20
0.165462326728
10
-5.86972343472
20
0.162025962832
10
-5.99152302484
20
0.158589593004
10
-6.11332261483
20
0.155153217677
10
-6.23512220469
20
0.151716837239
10
-6.35692179443
20
0.148280452045
10
-6.47872138406
20
0.144844062417
10
-6.6005209736
20
0.141407668648
10
-6.72232056304
20
0.137971271007
10
-6.84412015239
20
0.134534869739
10
-6.96591974166
20
0.13109846507
10
-7.08771933085
20
0.127662057206
10
-7.20951891996
20
0.124225646338
10
-7.33131850901
20
0.120789232642
10
-7.45311809799
20
0.11735281628
10
-7.57491768691
20
0.113916397402
10
-7.69671727577
20
0.110479976147
10
-7.81851686458
20
0.107043552644
10
-7.94031645334
20
0.103607127013
10
-8.06211604204
20
0.100170699365
10
-8.1839156307
20
0.0967342698039
10
-8.30571521931
20
0.0932978384264
10
-8.42751480789
20
0.0898614053231
10
-8.54931439642
20
0.0864249705784
10
-8.67111398491
20
0.0829885342712
10
-8.79291357337
20
0.0795520964758
10
-8.91471316179
20
0.0761156572614
10
-9.03651275018
20
0.0726792166933
10
-9.15831233854
20
0.0692427748328
10
-9.28011192687
20
0.0658063317374
10
-9.40191151517
20
0.0623698874614
10
-9.52371110344
20
0.058933442056
10
-9.64551069168
20
0.0554969955692
10
-9.7673102799
20
0.0520605480467
10
-9.8891098681
20
0.0486240995313
10
-10.0109094563
20
0.0451876500638
10
-10.1327090444
20
0.0417511996826
10
-10.2545086325
20
0.038314748424
10
-10.3763082207
20
0.0348782963227
10
-10.4981078087
20
0.0314418434112
10
-10.6199073968
20
0.0280053897206
10
-10.7417069849
20
0.0245689352805
10
-10.8635065729
20
0.0211324801187
10
-10.9853061609
20
0.017696024262
10
-11.1071057489
20
0.0142595677357
10
-11.2289053369
20
0.0108231105639
10
-11.3507049249
20
0.0073866527695
10
-11.4725045128
20
0.00395019437449
10
-11.5943041008
20
0.000513735399716
10
-11.7161036887
20
-0.00292272413489
10
-11.8379032766
20
-0.00635918421031
10
-11.9597028645
20
-0.00979564480838
10
-12.0815024524
20
-0.0132321059117
10
-12.2033020403
20
-0.0166685675037
10
-12.3251016281
20
-0.0201050295686
10
-12.446901216
20
-0.0235414920909
10
-12.5687008038
20
-0.0269779550564
10
-12.6905003916
20
-0.0304144184509
10
-12.8122999795
20
-0.0338508822611
10
-12.9340995673
20
-0.0372873464742
10
-13.0558991551
20
-0.040723811078
10
-13.1776987429
20
-0.0441602760605
10
-13.2994983307
20
-0.0475967414105
10
-13.4212979184
20
-0.051033207117
10
-13.5430975062
20
-0.0544696731697
10
-13.664897094
20
-0.0579061395585
10
-13.7866966817
20
-0.0613426062737
10
-13.9084962695
20
-0.064779073306
10
-14.0302958572
20
-0.0682155406464
10
-14.1520954449
20
-0.0716520082864
10
-14.2738950326
20
-0.0750884762176
10
-14.3956946203
20
-0.0785249444321
10
-14.5174942081
20
-0.0819614129221
10
-14.6392937958
20
-0.0853978816802
10
-14.7610933834
20
-0.0888343506993
0
LWPOLYLINE
8
green_beam_width
70
0
90
100
10
-2.70323192283
20
0.263550061963
10
-2.82505386568
20
0.261027707572
10
-2.94687581154
20
0.258505476435
10
-3.06869775987
20
0.255983345921
10
-3.19051971022
20
0.253461298616
10
-3.31234166228
20
0.250939320904
10
-3.43416361578
20
0.248417401985
10
-3.5559855705
20
0.245895533181
10
-3.67780752628
20
0.243373707442
10
-3.79962948297
20
0.240851918982
10
-3.92145144045
20
0.238330163004
10
-4.04327339863
20
0.235808435502
10
-4.16509535742
20
0.233286733101
10
-4.28691731676
20
0.230765052942
10
-4.40873927658
20
0.22824339258
10
-4.53056123683
20
0.225721749918
10
-4.65238319748
20
0.223200123145
10
-4.77420515847
20
0.220678510688
10
-4.89602711978
20
0.218156911176
10
-5.01784908137
20
0.215635323407
10
-5.13967104323
20
0.213113746322
10
-5.26149300533
20
0.210592178989
10
-5.38331496764
20
0.208070620579
10
-5.50513693016
20
0.205549070353
10
-5.62695889285
20
0.203027527654
10
-5.74878085572
20
0.200505991893
10
-5.87060281875
20
0.19798446254
10
-5.99242478192
20
0.195462939118
10
-6.11424674522
20
0.192941421197
10
-6.23606870865
20
0.190419908386
10
-6.3578906722
20
0.187898400331
10
-6.47971263585
20
0.18537689671
10
-6.60153459961
20
0.182855397229
10
-6.72335656346
20
0.180333901621
10
-6.84517852739
20
0.17781240964
10
-6.96700049142
20
0.17529092106
10
-7.08882245552
20
0.172769435674
10
-7.21064441969
20
0.170247953293
10
-7.33246638393
20
0.16772647374
10
-7.45428834824
20
0.165204996852
10
-7.57611031261
20
0.162683522481
10
-7.69793227704
20
0.160162050487
10
-7.81975424152
20
0.157640580741
10
-7.94157620605
20
0.155119113123
10
-8.06339817064
20
0.152597647522
10
-8.18522013527
20
0.150076183834
10
-8.30704209994
20
0.147554721962
10
-8.42886406466
20
0.145033261816
10
-8.55068602942
20
0.142511803312
10
-8.67250799421
20
0.13999034637
10
-8.79432995905
20
0.137468890916
10
-8.91615192391
20
0.134947436881
10
-9.03797388881
20
0.1324259842
10
-9.15979585374
20
0.129904532812
10
-9.28161781871
20
0.127383082658
10
-9.4034397837
20
0.124861633685
10
-9.52526174871
20
0.122340185841
10
-9.64708371376
20
0.119818739079
10
-9.76890567883
20
0.117297293352
10
-9.89072764392
20
0.114775848618
10
-10.012549609
20
0.112254404836
10
-10.1343715742
20
0.109732961968
10
-10.2561935393
20
0.107211519978
10
-10.3780155045
20
0.10469007883
10
-10.4998374697
20
0.102168638492
10
-10.6216594349
20
0.0996471989337
10
-10.7434814002
20
0.0971257601247
10
-10.8653033654
20
0.0946043220373
10
-10.9871253307
20
0.0920828846448
10
-11.108947296
20
0.089561447922
10
-11.2307692613
20
0.0870400118446
10
-11.3525912266
20
0.0845185763898
10
-11.474413192
20
0.0819971415357
10
-11.5962351573
20
0.0794757072613
10
-11.7180571227
20
0.0769542735467
10
-11.8398790881
20
0.074432840373
10
-11.9617010534
20
0.0719114077219
10
-12.0835230189
20
0.069389975576
10
-12.2053449843
20
0.0668685439189
10
-12.3271669497
20
0.0643471127345
10
-12.4489889151
20
0.0618256820077
10
-12.5708108806
20
0.059304251724
10
-12.692632846
20
0.0567828218693
10
-12.8144548115
20
0.0542613924304
10
-12.936276777
20
0.0517399633943
10
-13.0580987425
20
0.0492185347489
10
-13.179920708
20
0.0466971064822
10
-13.3017426735
20
0.0441756785831
10
-13.423564639
20
0.0416542510405
10
-13.5453866045
20
0.039132823844
10
-13.66720857
20
0.0366113969836
10
-13.7890305356
20
0.0340899704496
10
-13.9108525011
20
0.0315685442327
10
-14.0326744667
20
0.029047118324
10
-14.1544964322
20
0.0265256927148
10
-14.2763183978
20
0.0240042673968
10
-14.3981403634
20
0.0214828423621
10
-14.519962329
20
0.018961417603
10
-14.6417842946
20
0.0164399931119
10
-14.7636062602
20
0.0139185688818
0
LINE
8
green_beam
10
0.00212949074002
20
0.00212949074002
11
0.0639969917871
21
23.0761849419
0
LWPOLYLINE
8
green_beam_width
70
0
90
10
10
-0.0492536626282
20
0.0022672622428
10
-0.042378403155
20
2.56605119833
10
-0.0355032562403
20
5.12983513472
10
-0.0286282218906
20
7.69361907141
10
-0.0217533001117
20
10.2574030084
10
-0.0148784909084
20
12.8211869457
10
-0.00800379428502
20
15.3849708833
10
-0.001129210245
20
17.9487548212
10
0.0057452612089
20
20.5125387594
10
0.0126196200747
20
23.0763226979
0
LWPOLYLINE
8
green_beam_width
70
0
90
10
10
0.0535126441082
20
0.00199171923724
10
0.060385718201
20
2.56577566118
10
0.0672589048524
20
5.12955960283
10
0.0741322040688
20
7.69334354417
10
0.0810056158558
20
10.2571274852
10
0.0878791402186
20
12.8209114259
10
0.0947527771612
20
15.3846953664
10
0.101626526687
20
17.9484793065
10
0.108500388799
20
20.5122632464
10
0.1153743635
20
23.0760471859
0
LINE
8
green_beam
10
0.0639977777183
20
23.2261658347
11
0.063998925728
21
23.3761467275
0
LWPOLYLINE
8
green_beam_width
70
0
90
10
10
0.0126197374331
20
23.226166228
10
0.0126198658406
20
23.2428307716
10
0.0126199942434
20
23.2594953153
10
0.0126201226415
20
23.2761598589
10
0.0126202510348
20
23.2928244025
10
0.0126203794233
20
23.3094889462
10
0.0126205078071
20
23.3261534898
10
0.0126206361861
20
23.3428180335
10
0.0126207645604
20
23.3594825771
10
0.0126208929299
20
23.3761471208
0
LWPOLYLINE
8
green_beam_width
70
0
90
10
10
0.115375818004
20
23.2261654414
10
0.115375944709
20
23.2428299851
10
0.11537607142
20
23.2594945287
10
0.115376198135
20
23.2761590724
10
0.115376324855
20
23.292823616
10
0.11537645158
20
23.3094881597
10
0.115376578309
20
23.3261527033
10
0.115376705043
20
23.3428172469
10
0.115376831782
20
23.3594817906
10
0.115376958526
20
23.3761463342
0
LINE
8
green_beam
10
-1.60095638162
20
0.282119425482
11
-2.60070315986
21
0.259616550299
0
LWPOLYLINE
8
green_beam_width
70
0
90
100
10
-1.60092957997
20
0.28092869505
10
-1.61102702239
20
0.280656526522
10
-1.62112446198
20
0.280384232302
10
-1.63122189903
20
0.280111825188
10
-1.64131933379
20
0.279839316323
10
-1.65141676647
20
0.279566715452
10
-1.66151419728
20
0.279294031129
10
-1.67161162638
20
0.279021270894
10
-1.68170905392
20
0.278748441414
10
-1.69180648004
20
0.278475548607
10
-1.70190390485
20
0.278202597743
10
-1.71200132846
20
0.277929593527
10
-1.72209875096
20
0.277656540176
10
-1.73219617244
20
0.277383441475
10
-1.74229359298
20
0.277110300835
10
-1.75239101264
20
0.276837121336
10
-1.7624884315
20
0.276563905766
10
-1.77258584959
20
0.276290656653
10
-1.78268326699
20
0.276017376296
10
-1.79278068372
20
0.275744066792
10
-1.80287809985
20
0.275470730054
10
-1.8129755154
20
0.275197367832
10
-1.82307293041
20
0.27492398173
10
-1.83317034492
20
0.274650573223
10
-1.84326775895
20
0.274377143664
10
-1.85336517254
20
0.274103694303
10
-1.86346258571
20
0.273830226292
10
-1.87355999848
20
0.273556740696
10
-1.88365741088
20
0.2732832385
10
-1.89375482293
20
0.273009720618
10
-1.90385223464
20
0.272736187898
10
-1.91394964604
20
0.27246264113
10
-1.92404705714
20
0.272189081045
10
-1.93414446795
20
0.271915508329
10
-1.94424187849
20
0.271641923619
10
-1.95433928878
20
0.27136832751
10
-1.96443669882
20
0.27109472056
10
-1.97453410863
20
0.270821103289
10
-1.98463151822
20
0.270547476188
10
-1.99472892759
20
0.270273839714
10
-2.00482633677
20
0.270000194297
10
-2.01492374575
20
0.269726540342
10
-2.02502115455
20
0.26945287823
10
-2.03511856318
20
0.269179208319
10
-2.04521597164
20
0.268905530946
10
-2.05531337993
20
0.268631846431
10
-2.06541078807
20
0.268358155073
10
-2.07550819607
20
0.268084457158
10
-2.08560560392
20
0.267810752953
10
-2.09570301164
20
0.267537042712
10
-2.10580041922
20
0.267263326677
10
-2.11589782669
20
0.266989605076
10
-2.12599523403
20
0.266715878124
10
-2.13609264125
20
0.266442146028
10
-2.14619004836
20
0.266168408981
10
-2.15628745537
20
0.26589466717
10
-2.16638486227
20
0.26562092077
10
-2.17648226908
20
0.265347169949
10
-2.18657967579
20
0.265073414866
10
-2.1966770824
20
0.264799655673
10
-2.20677448893
20
0.264525892516
10
-2.21687189537
20
0.264252125532
10
-2.22696930172
20
0.263978354853
10
-2.237066708
20
0.263704580604
10
-2.2471641142
20
0.263430802907
10
-2.25726152032
20
0.263157021875
10
-2.26735892637
20
0.262883237619
10
-2.27745633235
20
0.262609450243
10
-2.28755373827
20
0.262335659848
10
-2.29765114411
20
0.262061866531
10
-2.3077485499
20
0.261788070384
10
-2.31784595562
20
0.261514271494
10
-2.32794336128
20
0.261240469948
10
-2.33804076688
20
0.260966665825
10
-2.34813817243
20
0.260692859204
10
-2.35823557792
20
0.260419050161
10
-2.36833298336
20
0.260145238766
10
-2.37843038875
20
0.259871425089
10
-2.38852779409
20
0.259597609197
10
-2.39862519938
20
0.259323791153
10
-2.40872260463
20
0.259049971019
10
-2.41882000982
20
0.258776148854
10
-2.42891741498
20
0.258502324714
10
-2.43901482009
20
0.258228498656
10
-2.44911222515
20
0.257954670731
10
-2.45920963018
20
0.257680840991
10
-2.46930703517
20
0.257407009484
10
-2.47940444012
20
0.257133176258
10
-2.48950184503
20
0.256859341358
10
-2.4995992499
20
0.256585504829
10
-2.50969665474
20
0.256311666713
10
-2.51979405955
20
0.256037827051
10
-2.52989146432
20
0.255763985883
10
-2.53998886905
20
0.255490143247
10
-2.55008627376
20
0.25521629918
10
-2.56018367843
20
0.254942453718
10
-2.57028108307
20
0.254668606895
10
-2.58037848769
20
0.254394758746
10
-2.59047589227
20
0.254120909301
10
-2.60057329682
20
0.253847058594
0
LWPOLYLINE
8
green_beam_width
70
0
90
100
10
-1.60098318326
20
0.283310155914
10
-1.61108264545
20
0.283127720903
10
-1.62118211048
20
0.282945411584
10
-1.63128157804
20
0.282763215159
10
-1.64138104789
20
0.282581120484
10
-1.65148051981
20
0.282399117817
10
-1.66157999362
20
0.282217198601
10
-1.67167946913
20
0.282035355297
10
-1.6817789462
20
0.281853581238
10
-1.69187842469
20
0.281671870506
10
-1.70197790449
20
0.281490217831
10
-1.7120773855
20
0.281308618507
10
-1.7221768676
20
0.28112706832
10
-1.73227635073
20
0.280945563481
10
-1.74237583481
20
0.280764100582
10
-1.75247531975
20
0.280582676542
10
-1.76257480551
20
0.280401288573
10
-1.77267429203
20
0.280219934148
10
-1.78277377925
20
0.280038610965
10
-1.79287326712
20
0.27985731693
10
-1.80297275561
20
0.279676050129
10
-1.81307224467
20
0.279494808812
10
-1.82317173427
20
0.279313591374
10
-1.83327122437
20
0.279132396343
10
-1.84337071495
20
0.278951222362
10
-1.85347020597
20
0.278770068184
10
-1.86356969741
20
0.278588932657
10
-1.87366918925
20
0.278407814714
10
-1.88376868146
20
0.278226713371
10
-1.89386817402
20
0.278045627714
10
-1.90396766692
20
0.277864556894
10
-1.91406716013
20
0.277683500124
10
-1.92416665365
20
0.277502456669
10
-1.93426614745
20
0.277321425846
10
-1.94436564152
20
0.277140407018
10
-1.95446513584
20
0.276959399587
10
-1.96456463041
20
0.276778402999
10
-1.97466412521
20
0.27659741673
10
-1.98476362023
20
0.276416440292
10
-1.99486311547
20
0.276235473227
10
-2.0049626109
20
0.276054515105
10
-2.01506210653
20
0.27587356552
10
-2.02516160234
20
0.275692624093
10
-2.03526109833
20
0.275511690466
10
-2.04536059448
20
0.275330764299
10
-2.0554600908
20
0.275149845276
10
-2.06555958727
20
0.274968933094
10
-2.07565908388
20
0.274788027471
10
-2.08575858064
20
0.274607128137
10
-2.09585807753
20
0.274426234838
10
-2.10595757456
20
0.274245347334
10
-2.11605707171
20
0.274064465396
10
-2.12615656898
20
0.273883588809
10
-2.13625606636
20
0.273702717366
10
-2.14635556386
20
0.273521850874
10
-2.15645506147
20
0.273340989146
10
-2.16655455917
20
0.273160132007
10
-2.17665405698
20
0.272979279289
10
-2.18675355489
20
0.272798430833
10
-2.19685305288
20
0.272617586486
10
-2.20695255097
20
0.272436746105
10
-2.21705204914
20
0.27225590955
10
-2.22715154739
20
0.27207507669
10
-2.23725104573
20
0.271894247399
10
-2.24735054414
20
0.271713421558
10
-2.25745004263
20
0.271532599051
10
-2.26754954119
20
0.271351779768
10
-2.27764903982
20
0.271170963604
10
-2.28774853852
20
0.27099015046
10
-2.29784803728
20
0.270809340238
10
-2.30794753611
20
0.270628532846
10
-2.318047035
20
0.270447728197
10
-2.32814653395
20
0.270266926204
10
-2.33824603295
20
0.270086126788
10
-2.34834553202
20
0.26990532987
10
-2.35844503113
20
0.269724535374
10
-2.3685445303
20
0.26954374323
10
-2.37864402953
20
0.269362953368
10
-2.3887435288
20
0.269182165721
10
-2.39884302812
20
0.269001380226
10
-2.40894252749
20
0.268820596821
10
-2.4190420269
20
0.268639815447
10
-2.42914152636
20
0.268459036047
10
-2.43924102586
20
0.268278258566
10
-2.4493405254
20
0.268097482952
10
-2.45944002499
20
0.267916709154
10
-2.46953952461
20
0.267735937122
10
-2.47963902427
20
0.267555166809
10
-2.48973852397
20
0.267374398169
10
-2.49983802371
20
0.267193631159
10
-2.50993752348
20
0.267012865736
10
-2.52003702329
20
0.266832101859
10
-2.53013652313
20
0.266651339488
10
-2.540236023
20
0.266470578585
10
-2.55033552291
20
0.266289819113
10
-2.56043502285
20
0.266109061036
10
-2.57053452282
20
0.265928304319
10
-2.58063402281
20
0.26574754893
10
-2.59073352284
20
0.265566794835
10
-2.6008330229
20
0.265386042004
0
LINE
8
green_beam
10
0.0639969917871
20
23.0761849419
11
0.421177122379
21
-1.92126337498
0
LWPOLYLINE
8
green_beam_width
70
0
90
10
10
0.115369304209
20
23.0769189836
10
0.155055904357
20
20.299424725
10
0.19474263666
20
17.5219304683
10
0.234429501118
20
14.7444362135
10
0.27411649773
20
11.9669419606
10
0.313803626494
20
9.18944770953
10
0.353490887405
20
6.41195346038
10
0.39317828046
20
3.63445921312
10
0.432865805653
20
0.856964967752
10
0.472553462977
20
-1.92052927573
0
LWPOLYLINE
8
green_beam_width
70
0
90
10
10
0.0126246793651
20
23.0754509002
10
0.0523114415714
20
20.2979566439
10
0.0919980716222
20
17.5204623858
10
0.131684569518
20
14.7429681257
10
0.171370935259
20
11.9654738638
10
0.21105716885
20
9.18797959995
10
0.250743270292
20
6.41048533424
10
0.290429239591
20
3.63299106664
10
0.330115076752
20
0.855496797149
10
0.369800781781
20
-1.92199747423
0
LINE
8
green_beam
10
-14.7623498218
20
-0.0374578909087
11
0.00212949074002
21
0.00212949074002
0
LWPOLYLINE
8
green_beam_width
70
0
90
10
10
-14.762487616
20
0.0139337452852
10
-13.1219899116
20
0.0183312164323
10
-11.4814922073
20
0.0227287336425
10
-9.84099450317
20
0.0271262969187
10
-8.20049679913
20
0.0315239062636
10
-6.55999909521
20
0.0359215616799
10
-4.91950139141
20
0.0403192631702
10
-3.27900368774
20
0.0447170107368
10
-1.63850598419
20
0.0491148043821
10
0.00199171923723
20
0.0535126441082
0
LWPOLYLINE
8
green_beam_width
70
0
90
10
10
-14.7622120276
20
-0.0888495271027
10
-13.1217143292
20
-0.0844498023278
10
-11.4812166307
20
-0.0800501236161
10
-9.84071893207
20
-0.0756504909703
10
-8.20022123332
20
-0.0712509043933
10
-6.55972353446
20
-0.0668513638877
10
-4.91922583547
20
-0.062451869456
10
-3.27872813635
20
-0.0580524211007
10
-1.63823043712
20
-0.053653018824
10
0.0022672622428
20
-0.0492536626282
0
LINE
8
Mirrors
10
-17.4594918419
20
0.0938572515015
11
-17.5589460743
21
0.0935938525672
0
LINE
8
Mirrors
10
-17.5606990168
20
0.343590086778
11
-17.4601539505
21
0.343856374724
0
LINE
8
Mirrors
10
-17.4701539155
20
0.34382989038
11
-17.4694918068
21
0.0938307671575
0
LWPOLYLINE
8
Mirrors
70
0
90
60
10
-17.4601539505
20
0.343856374724
10
-17.4601442184
20
0.339546040555
10
-17.4601344272
20
0.335235706542
10
-17.4601245769
20
0.330925372685
10
-17.4601146676
20
0.326615038985
10
-17.4601046992
20
0.322304705441
10
-17.4600946717
20
0.317994372054
10
-17.4600845852
20
0.313684038823
10
-17.4600744395
20
0.309373705749
10
-17.4600642348
20
0.305063372831
10
-17.4600539711
20
0.300753040069
10
-17.4600436482
20
0.296442707464
10
-17.4600332663
20
0.292132375016
10
-17.4600228253
20
0.287822042724
10
-17.4600123253
20
0.283511710588
10
-17.4600017662
20
0.279201378609
10
-17.459991148
20
0.274891046786
10
-17.4599804707
20
0.27058071512
10
-17.4599697343
20
0.26627038361
10
-17.4599589389
20
0.261960052256
10
-17.4599480845
20
0.257649721059
10
-17.4599371709
20
0.253339390019
10
-17.4599261983
20
0.249029059135
10
-17.4599151666
20
0.244718728407
10
-17.4599040758
20
0.240408397836
10
-17.459892926
20
0.236098067421
10
-17.459881717
20
0.231787737163
10
-17.4598704491
20
0.227477407061
10
-17.459859122
20
0.223167077115
10
-17.4598477359
20
0.218856747327
10
-17.4598477359
20
0.218856747327
10
-17.4598362907
20
0.214546417694
10
-17.4598247864
20
0.210236088218
10
-17.459813223
20
0.205925758898
10
-17.4598016006
20
0.201615429735
10
-17.4597899191
20
0.197305100728
10
-17.4597781786
20
0.192994771878
10
-17.459766379
20
0.188684443184
10
-17.4597545202
20
0.184374114647
10
-17.4597426025
20
0.180063786266
10
-17.4597306256
20
0.175753458042
10
-17.4597185897
20
0.171443129974
10
-17.4597064947
20
0.167132802062
10
-17.4596943407
20
0.162822474307
10
-17.4596821275
20
0.158512146708
10
-17.4596698553
20
0.154201819266
10
-17.459657524
20
0.14989149198
10
-17.4596451337
20
0.145581164851
10
-17.4596326843
20
0.141270837878
10
-17.4596201758
20
0.136960511061
10
-17.4596076082
20
0.132650184401
10
-17.4595949816
20
0.128339857898
10
-17.4595822959
20
0.124029531551
10
-17.4595695511
20
0.11971920536
10
-17.4595567472
20
0.115408879326
10
-17.4595438843
20
0.111098553448
10
-17.4595309623
20
0.106788227727
10
-17.4595179813
20
0.102477902162
10
-17.4595049411
20
0.0981675767535
10
-17.4594918419
20
0.0938572515015
0
LINE
8
Mirrors
10
-17.5589460743
20
0.0935938525672
11
-17.5606990168
21
0.343590086778
0
TEXT
8
text
10
-17.5473227209
20
0.206224391393
40
0.025
1
PRM
0
LINE
8
Mirrors
10
-2.70239221198
20
0.382933936542
11
-2.6029468709
21
0.38428960905
0
LINE
8
Mirrors
10
-2.59844836666
20
0.13432770518
11
-2.6989844441
21
0.132957163385
0
LINE
8
Mirrors
10
-2.68898537318
20
0.1330934741
11
-2.69239314106
21
0.383070247257
0
LWPOLYLINE
8
Mirrors
70
0
90
60
10
-2.6989844441
20
0.132957163385
10
-2.69920597517
20
0.137264888726
10
-2.69942178705
20
0.141572692033
10
-2.69963188058
20
0.145880573294
10
-2.69983625657
20
0.1501885325
10
-2.70003491577
20
0.154496569638
10
-2.70022785893
20
0.158804684699
10
-2.70041508676
20
0.163112877674
10
-2.70059659992
20
0.167421148552
10
-2.70077239907
20
0.171729497327
10
-2.70094248482
20
0.176037923988
10
-2.70110685776
20
0.180346428528
10
-2.70126551845
20
0.184655010939
10
-2.70141846741
20
0.188963671215
10
-2.70156570513
20
0.193272409348
10
-2.7017072321
20
0.197581225332
10
-2.70184304873
20
0.201890119162
10
-2.70197315544
20
0.206199090831
10
-2.7020975526
20
0.210508140334
10
-2.70221624055
20
0.214817267667
10
-2.70232921962
20
0.219126472826
10
-2.70243649008
20
0.223435755806
10
-2.7025380522
20
0.227745116605
10
-2.7026339062
20
0.232054555219
10
-2.70272405227
20
0.236364071644
10
-2.70280849057
20
0.24067366588
10
-2.70288722126
20
0.244983337925
10
-2.70296024441
20
0.249293087776
10
-2.70302756013
20
0.253602915433
10
-2.70308916844
20
0.257912820895
10
-2.70308916844
20
0.257912820895
10
-2.70314506936
20
0.262222804163
10
-2.70319526289
20
0.266532865235
10
-2.70323974897
20
0.270843004113
10
-2.70327852752
20
0.275153220799
10
-2.70331159845
20
0.279463515292
10
-2.70333896162
20
0.283773887596
10
-2.70336061686
20
0.288084337712
10
-2.70337656398
20
0.292394865643
10
-2.70338680275
20
0.296705471392
10
-2.70339133292
20
0.301016154963
10
-2.7033901542
20
0.305326916359
10
-2.70338326628
20
0.309637755585
10
-2.70337066881
20
0.313948672646
10
-2.70335236142
20
0.318259667546
10
-2.70332834369
20
0.322570740291
10
-2.7032986152
20
0.326881890888
10
-2.70326317548
20
0.331193119342
10
-2.70322202403
20
0.33550442566
10
-2.70317516032
20
0.339815809849
10
-2.70312258381
20
0.344127271918
10
-2.7030642939
20
0.348438811873
10
-2.70300028997
20
0.352750429724
10
-2.70293057139
20
0.357062125479
10
-2.70285513747
20
0.361373899147
10
-2.7027739875
20
0.365685750739
10
-2.70268712075
20
0.369997680263
10
-2.70259453645
20
0.374309687731
10
-2.70249623381
20
0.378621773154
10
-2.70239221198
20
0.382933936542
0
LINE
8
Mirrors
10
-2.6029468709
20
0.38428960905
11
-2.59844836666
21
0.13432770518
0
TEXT
8
text
10
-2.68819297341
20
0.246127103539
40
0.025
1
PR2
0
LINE
8
Mirrors
10
0.290450727294
20
-17.2561050766
11
0.289654869495
21
-17.3555564734
0
LINE
8
Mirrors
10
0.0396541449442
20
-17.3546467203
11
0.0404587318698
21
-17.2541045207
0
LINE
8
Mirrors
10
0.0403787096336
20
-17.2641042005
11
0.290370705058
21
-17.2661047564
0
LWPOLYLINE
8
Mirrors
70
0
90
60
10
0.0404587318698
20
-17.2541045207
10
0.0447689252153
20
-17.2541406965
10
0.0490791190335
20
-17.2541768133
10
0.0533893133245
20
-17.254212871
10
0.0576995080881
20
-17.2542488696
10
0.0620097033245
20
-17.2542848092
10
0.0663198990335
20
-17.2543206897
10
0.0706300952153
20
-17.2543565111
10
0.0749402918697
20
-17.2543922734
10
0.0792504889969
20
-17.2544279767
10
0.0835606865968
20
-17.2544636209
10
0.0878708846694
20
-17.2544992061
10
0.0921810832147
20
-17.2545347321
10
0.0964912822327
20
-17.2545701991
10
0.100801481723
20
-17.2546056071
10
0.105111681687
20
-17.2546409559
10
0.109421882123
20
-17.2546762457
10
0.113732083032
20
-17.2547114764
10
0.118042284413
20
-17.2547466481
10
0.122352486267
20
-17.2547817607
10
0.126662688594
20
-17.2548168142
10
0.130972891394
20
-17.2548518086
10
0.135283094666
20
-17.254886744
10
0.139593298411
20
-17.2549216203
10
0.143903502629
20
-17.2549564375
10
0.14821370732
20
-17.2549911957
10
0.152523912483
20
-17.2550258947
10
0.156834118119
20
-17.2550605348
10
0.161144324227
20
-17.2550951157
10
0.165454530809
20
-17.2551296376
10
0.165454530809
20
-17.2551296376
10
0.169764737863
20
-17.2551641004
10
0.174074945389
20
-17.2551985041
10
0.178385153389
20
-17.2552328488
10
0.182695361861
20
-17.2552671344
10
0.187005570806
20
-17.2553013609
10
0.191315780223
20
-17.2553355284
10
0.195625990114
20
-17.2553696368
10
0.199936200477
20
-17.2554036861
10
0.204246411312
20
-17.2554376763
10
0.208556622621
20
-17.2554716075
10
0.212866834402
20
-17.2555054796
10
0.217177046655
20
-17.2555392927
10
0.221487259382
20
-17.2555730466
10
0.225797472581
20
-17.2556067415
10
0.230107686253
20
-17.2556403774
10
0.234417900398
20
-17.2556739541
10
0.238728115015
20
-17.2557074718
10
0.243038330105
20
-17.2557409304
10
0.247348545668
20
-17.25577433
10
0.251658761703
20
-17.2558076705
10
0.255968978211
20
-17.2558409519
10
0.260279195192
20
-17.2558741742
10
0.264589412646
20
-17.2559073375
10
0.268899630572
20
-17.2559404417
10
0.273209848971
20
-17.2559734868
10
0.277520067843
20
-17.2560064728
10
0.281830287187
20
-17.2560393998
10
0.286140507004
20
-17.2560722678
10
0.290450727294
20
-17.2561050766
0
LINE
8
Mirrors
10
0.289654869495
20
-17.3555564734
11
0.0396541449442
21
-17.3546467203
0
TEXT
8
text
10
0.127554618401
20
-17.3176031977
40
0.025
1
SRM
0
LINE
8
Mirrors
10
0.155925076703
20
-2.83280935391
11
0.157811533526
21
-2.73337266555
0
LINE
8
Mirrors
10
0.407787247276
20
-2.73702402995
11
0.405880099418
21
-2.83755135976
0
LINE
8
Mirrors
10
0.406069779652
20
-2.82755315885
11
0.156114756937
21
-2.822811153
0
LWPOLYLINE
8
Mirrors
70
0
90
60
10
0.405880099418
20
-2.83755135976
10
0.401567442226
20
-2.83763236332
10
0.397254893526
20
-2.8377076482
10
0.392942453302
20
-2.83777721522
10
0.388630121539
20
-2.8378410652
10
0.384317898222
20
-2.83789919889
10
0.380005783337
20
-2.83795161703
10
0.375693776871
20
-2.83799832034
10
0.37138187881
20
-2.83803930948
10
0.367070089143
20
-2.8380745851
10
0.362758407858
20
-2.83810414783
10
0.358446834944
20
-2.83812799824
10
0.35413537039
20
-2.83814613689
10
0.349824014187
20
-2.83815856432
10
0.345512766324
20
-2.838165281
10
0.341201626793
20
-2.83816628742
10
0.336890595586
20
-2.83816158401
10
0.332579672695
20
-2.83815117117
10
0.328268858113
20
-2.83813504928
10
0.323958151833
20
-2.83811321868
10
0.31964755385
20
-2.83808567969
10
0.315337064158
20
-2.83805243259
10
0.311026682751
20
-2.83801347764
10
0.306716409627
20
-2.83796881507
10
0.302406244781
20
-2.83791844507
10
0.298096188209
20
-2.8378623678
10
0.293786239911
20
-2.8378005834
10
0.289476399882
20
-2.83773309198
10
0.285166668123
20
-2.83765989361
10
0.280857044632
20
-2.83758098833
10
0.280857044632
20
-2.83758098833
10
0.276547529409
20
-2.83749637617
10
0.272238122454
20
-2.8374060571
10
0.267928823768
20
-2.83731003108
10
0.263619633352
20
-2.83720829803
10
0.259310551209
20
-2.83710085785
10
0.255001577341
20
-2.83698771041
10
0.250692711751
20
-2.83686885554
10
0.246383954443
20
-2.83674429305
10
0.242075305421
20
-2.8366140227
10
0.23776676469
20
-2.83647804425
10
0.233458332256
20
-2.8363363574
10
0.229150008123
20
-2.83618896185
10
0.2248417923
20
-2.83603585725
10
0.220533684793
20
-2.83587704322
10
0.216225685609
20
-2.83571251936
10
0.211917794758
20
-2.83554228522
10
0.207610012247
20
-2.83536634036
10
0.203302338087
20
-2.83518468426
10
0.198994772286
20
-2.83499731641
10
0.194687314857
20
-2.83480423624
10
0.19037996581
20
-2.83460544317
10
0.186072725156
20
-2.83440093659
10
0.181765592908
20
-2.83419071584
10
0.177458569078
20
-2.83397478025
10
0.173151653681
20
-2.83375312912
10
0.16884484673
20
-2.8335257617
10
0.16453814824
20
-2.83329267723
10
0.160231558226
20
-2.83305387491
10
0.155925076703
20
-2.83280935391
0
LINE
8
Mirrors
10
0.157811533526
20
-2.73337266555
11
0.407787247276
21
-2.73702402995
0
TEXT
8
text
10
0.244350989231
20
-2.79768935229
40
0.025
1
SR2
0
LINE
8
Mirrors
10
0.044562683226
20
-14.8968618507
11
0.0426762036057
21
-14.9962985386
0
LINE
8
Mirrors
10
-0.207299509307
20
-14.9926471169
11
-0.205392338402
21
-14.8921197876
0
LINE
8
Mirrors
10
-0.205582020928
20
-14.9021179884
11
0.0443730006997
21
-14.9068600516
0
LWPOLYLINE
8
Mirrors
70
0
90
60
10
-0.205392338402
20
-14.8921197876
10
-0.201083136164
20
-14.8922208972
10
-0.196773921044
20
-14.8923213278
10
-0.192464693044
20
-14.8924210796
10
-0.188155452163
20
-14.8925201523
10
-0.183846198401
20
-14.8926185461
10
-0.179536931758
20
-14.892716261
10
-0.175227652235
20
-14.8928132969
10
-0.17091835983
20
-14.8929096538
10
-0.166609054545
20
-14.8930053318
10
-0.162299736379
20
-14.8931003309
10
-0.157990405332
20
-14.893194651
10
-0.153681061405
20
-14.8932882921
10
-0.149371704597
20
-14.8933812544
10
-0.145062334908
20
-14.8934735376
10
-0.140752952338
20
-14.893565142
10
-0.136443556888
20
-14.8936560673
10
-0.132134148557
20
-14.8937463138
10
-0.127824727345
20
-14.8938358813
10
-0.123515293253
20
-14.8939247699
10
-0.11920584628
20
-14.8940129795
10
-0.114896386427
20
-14.8941005102
10
-0.110586913693
20
-14.8941873619
10
-0.106277428078
20
-14.8942735347
10
-0.101967929583
20
-14.8943590286
10
-0.0976584182072
20
-14.8944438435
10
-0.0933488939508
20
-14.8945279795
10
-0.0890393568139
20
-14.8946114366
10
-0.0847298067963
20
-14.8946942147
10
-0.0804202438982
20
-14.8947763138
10
-0.0804202438982
20
-14.8947763138
10
-0.0761106681195
20
-14.8948577341
10
-0.0718010794602
20
-14.8949384754
10
-0.0674914779204
20
-14.8950185378
10
-0.0631818634999
20
-14.8950979212
10
-0.0588722361989
20
-14.8951766257
10
-0.0545625960173
20
-14.8952546512
10
-0.0502529429551
20
-14.8953319978
10
-0.0459432770123
20
-14.8954086655
10
-0.0416335981889
20
-14.8954846543
10
-0.0373239064849
20
-14.895559964
10
-0.0330142019003
20
-14.8956345949
10
-0.028704484435
20
-14.8957085468
10
-0.0243947540891
20
-14.8957818198
10
-0.0200850108625
20
-14.8958544138
10
-0.0157752547552
20
-14.8959263289
10
-0.0114654857673
20
-14.8959975651
10
-0.0071557038987
20
-14.8960681223
10
-0.00284590914936
20
-14.8961380005
10
0.00146389848071
20
-14.8962071998
10
0.00577371899153
20
-14.8962757202
10
0.0100835523831
20
-14.8963435616
10
0.0143933986555
20
-14.8964107241
10
0.0187032578087
20
-14.8964772076
10
0.0230131298427
20
-14.8965430122
10
0.0273230147575
20
-14.8966081378
10
0.0316329125533
20
-14.8966725845
10
0.0359428232299
20
-14.8967363522
10
0.0402527467875
20
-14.8967994409
10
0.044562683226
20
-14.8968618507
0
LINE
8
Mirrors
10
0.0426762036057
20
-14.9962985386
11
-0.207299509307
21
-14.9926471169
0
TEXT
8
text
10
-0.118863240219
20
-14.9569818235
40
0.025
1
SR3
0
LINE
8
Mirrors
10
-14.7603440986
20
-0.163792162737
11
-14.8597894616
21
-0.165146223812
0
LINE
8
Mirrors
10
-14.8642839154
20
0.0848157529201
11
-14.7637478158
21
0.0861846656078
0
LINE
8
Mirrors
10
-14.7737468889
20
0.0860485169196
11
-14.7703431717
21
-0.163928311425
0
LWPOLYLINE
8
Mirrors
70
0
90
60
10
-14.7637478158
20
0.0861846656078
10
-14.7637084826
20
0.0818744567976
10
-14.7636684704
20
0.0775642572329
10
-14.7636277792
20
0.0732540669138
10
-14.763586409
20
0.0689438858403
10
-14.7635443597
20
0.0646337140122
10
-14.7635016315
20
0.0603235514297
10
-14.7634582242
20
0.0560133980927
10
-14.763414138
20
0.0517032540011
10
-14.7633693727
20
0.047393119155
10
-14.7633239284
20
0.0430829935544
10
-14.7632778051
20
0.0387728771992
10
-14.7632310028
20
0.0344627700894
10
-14.7631835215
20
0.030152672225
10
-14.7631353612
20
0.025842583606
10
-14.7630865219
20
0.0215325042324
10
-14.7630370036
20
0.0172224341042
10
-14.7629868063
20
0.0129123732213
10
-14.76293593
20
0.0086023215838
10
-14.7628843747
20
0.00429227919164
10
-14.7628321404
20
-1.77539551687e-05
10
-14.7627792271
20
-0.00432777785665
10
-14.7627256348
20
-0.00863779251279
10
-14.7626713635
20
-0.0129477979236
10
-14.7626164132
20
-0.0172577940891
10
-14.7625607839
20
-0.0215677810093
10
-14.7625044756
20
-0.0258777586842
10
-14.7624474884
20
-0.0301877271137
10
-14.7623898221
20
-0.034497686298
10
-14.7623314768
20
-0.0388076362369
10
-14.7623314768
20
-0.0388076362369
10
-14.7622724525
20
-0.0431175769305
10
-14.7622127492
20
-0.0474275083789
10
-14.762152367
20
-0.0517374305819
10
-14.7620913057
20
-0.0560473435396
10
-14.7620295654
20
-0.060357247252
10
-14.7619671462
20
-0.064667141719
10
-14.7619040479
20
-0.0689770269408
10
-14.7618402707
20
-0.0732869029172
10
-14.7617758144
20
-0.0775967696483
10
-14.7617106791
20
-0.0819066271341
10
-14.7616448649
20
-0.0862164753745
10
-14.7615783716
20
-0.0905263143695
10
-14.7615111994
20
-0.0948361441192
10
-14.7614433481
20
-0.0991459646236
10
-14.7613748179
20
-0.103455775883
10
-14.7613056086
20
-0.107765577896
10
-14.7612357203
20
-0.112075370664
10
-14.7611651531
20
-0.116385154187
10
-14.7610939068
20
-0.120694928464
10
-14.7610219815
20
-0.125004693496
10
-14.7609493772
20
-0.129314449283
10
-14.7608760939
20
-0.133624195824
10
-14.7608021316
20
-0.137933933119
10
-14.7607274903
20
-0.142243661169
10
-14.76065217
20
-0.146553379974
10
-14.7605761707
20
-0.150863089533
10
-14.7604994923
20
-0.155172789846
10
-14.760422135
20
-0.159482480914
10
-14.7603440986
20
-0.163792162737
0
LINE
8
Mirrors
10
-14.8597894616
20
-0.165146223812
11
-14.8642839154
21
0.0848157529201
0
TEXT
8
text
10
-14.8495413228
20
-0.0519844920053
40
0.025
1
PR3
0
LINE
8
Mirrors
10
0.134350288425
20
0.134350288425
11
0.21830453305
21
0.0503960438004
0
LINE
8
Mirrors
10
-0.0485989055657
20
-0.220101671285
11
-0.134350288425
21
-0.134350288425
0
LINE
8
Mirrors
10
-0.125865007051
20
-0.1428355698
11
0.1428355698
21
0.125865007051
0
LINE
8
Mirrors
10
-0.134350288425
20
-0.134350288425
11
0.134350288425
21
0.134350288425
0
LINE
8
Mirrors
10
0.21830453305
20
0.0503960438004
11
-0.0485989055657
21
-0.220101671285
0
TEXT
8
text
10
0.0124264068712
20
-0.0574264068712
40
0.03
1
BS
0
LINE
8
Mirrors
10
26.4891205797
20
-0.231015548525
11
26.339851956
21
-0.231015548525
0
LINE
8
Mirrors
10
26.3383892034
20
0.0189844514751
11
26.4891205797
21
0.0189844514751
0
LINE
8
Mirrors
10
26.4741205797
20
0.0189844514751
11
26.4741205797
21
-0.231015548525
0
LINE
8
Mirrors
10
26.4891205797
20
0.0189844514751
11
26.4891205797
21
-0.231015548525
0
LINE
8
Mirrors
10
26.339851956
20
-0.231015548525
11
26.3383892034
21
0.0189844514751
0
TEXT
8
text
10
26.3391205797
20
-0.124765548525
40
0.0375
1
ITMX
0
LINE
8
Mirrors
10
0.185704513134
20
23.2261658347
11
0.185704513134
21
23.0768912453
0
LINE
8
Mirrors
10
-0.0642954868665
20
23.0754404241
11
-0.0642954868665
21
23.2261658347
0
LINE
8
Mirrors
10
-0.0642954868665
20
23.2111658347
11
0.185704513134
21
23.2111658347
0
LINE
8
Mirrors
10
-0.0642954868665
20
23.2261658347
11
0.185704513134
21
23.2261658347
0
LINE
8
Mirrors
10
0.185704513134
20
23.0768912453
11
-0.0642954868665
21
23.0754404241
0
TEXT
8
text
10
-0.0142954868665
20
23.1324158347
40
0.0375
1
ITMY
0
CIRCLE
8
Vacuum
10
-17.4598228962
20
0.218856813113
40
1.0
0
CIRCLE
8
Vacuum
10
-2.70068832804
20
0.257945549963
40
1.0
0
CIRCLE
8
Vacuum
10
-14.7620459572
20
-0.0388037485645
40
1.0
0
CIRCLE
8
Vacuum
10
6.31439345256e-16
20
-1.38777878078e-17
40
1.0
0
CIRCLE
8
Vacuum
10
26.4891205797
20
-0.106015548525
40
1.0
0
CIRCLE
8
Vacuum
10
0.0607045131335
20
23.2261658347
40
1.0
0
CIRCLE
8
Vacuum
10
0.165454729582
20
-17.2551047987
40
1.0
0
CIRCLE
8
Vacuum
10
0.28090258806
20
-2.83518035683
40
1.0
0
CIRCLE
8
Vacuum
10
-0.080414827588
20
-14.8944908191
40
1.0
0
ENDSEC
0
EOF
