0
SECTION
2
HEADER
9
$ACADVER
1
AC1006
9
$INSBASE
10
0.0
20
0.0
30
0.0
9
$EXTMIN
10
0.0
20
0.0
9
$EXTMAX
10
0.0
20
0.0
0
ENDSEC
0
SECTION
2
TABLES
0
TABLE
2
LTYPE
70
1
0
LTYPE
2
CONTINUOUS
70
64
3
Solid line
72
65
73
0
40
0.0
0
ENDTAB
0
TABLE
2
LAYER
70
7
0
LAYER
2
PYDXF
70
64
62
7
6
continuous
0
LAYER
2
MAIN_BEAM
70
64
62
1
6
continuous
0
LAYER
2
MAIN_BEAM_WIDTH
70
64
62
2
6
continuous
0
LAYER
2
AUX_BEAM
70
64
62
3
6
continuous
0
LAYER
2
AUX_BEAM_WIDTH
70
64
62
4
6
continuous
0
LAYER
2
GREEN_BEAM
70
64
62
5
6
continuous
0
LAYER
2
GREEN_BEAM_WIDTH
70
64
62
6
6
continuous
0
ENDTAB
0
TABLE
2
STYLE
70
1
0
STYLE
2
STANDARD
70
0
40
0
41
40
50
50
71
0
42
1
3
ARIAL.TTF
4

0
ENDTAB
0
TABLE
2
VIEW
70
0
0
ENDTAB
0
ENDSEC
0
SECTION
2
BLOCKS
0
ENDSEC
0
SECTION
2
ENTITIES
0
LINE
8
main_beam
10
4.65513462302e-05
20
4.65513462294e-05
11
0.131964939811
21
-0.0371062484662
0
LWPOLYLINE
8
main_beam_width
70
0
90
10
10
0.0312024153229
20
0.110671629073
10
0.0458600142255
20
0.106543540859
10
0.0605176131283
20
0.102415452647
10
0.0751752120313
20
0.0982873644343
10
0.0898328109345
20
0.0941592762228
10
0.104490409838
20
0.090031188012
10
0.119148008741
20
0.0859030998019
10
0.133805607645
20
0.0817750115924
10
0.148463206549
20
0.0776469233837
10
0.163120805453
20
0.0735188351756
0
LWPOLYLINE
8
main_beam_width
70
0
90
10
10
-0.0311093126305
20
-0.110578526381
10
-0.0164517140965
20
-0.114706615903
10
-0.00179411556273
20
-0.118834705426
10
0.0128634829708
20
-0.12296279495
10
0.0275210815042
20
-0.127090884475
10
0.0421786800374
20
-0.131218974
10
0.0568362785704
20
-0.135347063526
10
0.0714938771032
20
-0.139475153053
10
0.0861514756358
20
-0.14360324258
10
0.100809074168
20
-0.147731332108
0
LINE
8
main_beam
10
0.0374789572554
20
-0.132864634051
11
-0.0804171081677
21
-14.8947763733
0
LWPOLYLINE
8
main_beam_width
70
0
90
10
10
0.139799119973
20
-0.133681814428
10
0.126699524646
20
-1.77389422964
10
0.113599952654
20
-3.41410664505
10
0.100500403997
20
-5.05431906064
10
0.0874008786739
20
-6.69453147641
10
0.0743013766861
20
-8.33474389237
10
0.061201898033
20
-9.97495630852
10
0.0481024427146
20
-11.6151687249
10
0.0350030107307
20
-13.2553811414
10
0.0219036020813
20
-14.8955935581
0
LWPOLYLINE
8
main_beam_width
70
0
90
10
10
-0.0648412054623
20
-0.132047453674
10
-0.0779407357849
20
-1.77225986941
10
-0.0910402894422
20
-3.41247228496
10
-0.104139866434
20
-5.05268470032
10
-0.117239466761
20
-6.6928971155
10
-0.130339090423
20
-8.33310953049
10
-0.14343873742
20
-9.97332194529
10
-0.156538407751
20
-11.6135343599
10
-0.169638101417
20
-13.2537467743
10
-0.182737818417
20
-14.8939591886
0
LINE
8
main_beam
10
-17.4598228962
20
0.218856813113
11
-2.70308952781
21
0.257939190521
0
LWPOLYLINE
8
main_beam_width
70
0
90
10
10
-17.4598550619
20
0.231001946131
10
-15.8202178719
20
0.235288123222
10
-14.1805807192
20
0.239588435093
10
-12.5409436044
20
0.243903030545
10
-10.9013065277
20
0.24823200913
10
-9.26166948923
20
0.252575419393
10
-7.62203248895
20
0.256933258009
10
-5.98239552674
20
0.261305469836
10
-4.34275860232
20
0.265691948902
10
-2.70312171527
20
0.270092540275
0
LWPOLYLINE
8
main_beam_width
70
0
90
10
10
-17.4597907305
20
0.206711680094
10
-15.8201538387
20
0.211110475761
10
-14.1805169095
20
0.215495136647
10
-12.5408799424
20
0.219865513953
10
-10.9012429373
20
0.224221508126
10
-9.26160589387
20
0.228563070619
10
-7.62196881228
20
0.232890204761
10
-5.98233169262
20
0.237202965692
10
-4.34269453517
20
0.241501459383
10
-2.70305734035
20
0.245785840767
0
LINE
8
main_beam
10
-0.0804171081677
20
-14.8947763733
11
0.280830677304
21
-2.837580488
0
LWPOLYLINE
8
main_beam_width
70
0
90
100
10
-0.182695185796
20
-14.8917120017
10
-0.178135264343
20
-14.7699494375
10
-0.173575343022
20
-14.6481868733
10
-0.169015421837
20
-14.5264243092
10
-0.164455500792
20
-14.404661745
10
-0.159895579891
20
-14.2828991808
10
-0.155335659136
20
-14.1611366166
10
-0.150775738534
20
-14.0393740524
10
-0.146215818088
20
-13.9176114882
10
-0.141655897802
20
-13.795848924
10
-0.137095977682
20
-13.6740863598
10
-0.132536057733
20
-13.5523237955
10
-0.127976137958
20
-13.4305612313
10
-0.123416218364
20
-13.3087986671
10
-0.118856298957
20
-13.1870361028
10
-0.114296379741
20
-13.0652735386
10
-0.109736460723
20
-12.9435109744
10
-0.10517654191
20
-12.8217484101
10
-0.100616623307
20
-12.6999858458
10
-0.0960567049214
20
-12.5782232816
10
-0.0914967867604
20
-12.4564607173
10
-0.0869368688313
20
-12.334698153
10
-0.0823769511417
20
-12.2129355887
10
-0.0778170336998
20
-12.0911730244
10
-0.0732571165139
20
-11.9694104601
10
-0.0686971995928
20
-11.8476478958
10
-0.0641372829458
20
-11.7258853315
10
-0.0595773665825
20
-11.6041227672
10
-0.055017450513
20
-11.4823602028
10
-0.0504575347479
20
-11.3605976385
10
-0.0458976192982
20
-11.2388350741
10
-0.0413377041757
20
-11.1170725098
10
-0.0367777893925
20
-10.9953099454
10
-0.0322178749615
20
-10.873547381
10
-0.0276579608961
20
-10.7517848166
10
-0.0230980472107
20
-10.6300222522
10
-0.01853813392
20
-10.5082596878
10
-0.0139782210399
20
-10.3864971233
10
-0.009418308587
20
-10.2647345589
10
-0.00485839657867
20
-10.1429719944
10
-0.000298485033416
20
-10.02120943
10
0.00426142602927
20
-9.89944686548
10
0.00882133658878
20
-9.77768430098
10
0.0133812466233
20
-9.65592173646
10
0.0179411561099
20
-9.53415917193
10
0.0225010650239
20
-9.41239660738
10
0.0270609733396
20
-9.29063404281
10
0.0316208810295
20
-9.16887147822
10
0.0361807880642
20
-9.04710891361
10
0.0407406944128
20
-8.92534634898
10
0.0453006000422
20
-8.80358378434
10
0.0498605049172
20
-8.68182121966
10
0.0544204090002
20
-8.56005865497
10
0.0589803122512
20
-8.43829609025
10
0.0635402146274
20
-8.3165335255
10
0.0681001160828
20
-8.19477096072
10
0.0726600165685
20
-8.07300839592
10
0.0772199160318
20
-7.95124583109
10
0.0817798144162
20
-7.82948326622
10
0.0863397116609
20
-7.70772070132
10
0.0908996077006
20
-7.58595813638
10
0.0954595024647
20
-7.46419557141
10
0.100019395877
20
-7.34243300639
10
0.104579287856
20
-7.22067044133
10
0.109139178311
20
-7.09890787623
10
0.113699067147
20
-6.97714531108
10
0.118258954258
20
-6.85538274587
10
0.12281883953
20
-6.73362018061
10
0.127378722838
20
-6.61185761529
10
0.131938604047
20
-6.49009504991
10
0.136498483007
20
-6.36833248446
10
0.141058359555
20
-6.24656991894
10
0.145618233511
20
-6.12480735334
10
0.150178104677
20
-6.00304478766
10
0.154737972836
20
-5.88128222189
10
0.159297837743
20
-5.75951965602
10
0.163857699132
20
-5.63775709004
10
0.168417556702
20
-5.51599452396
10
0.172977410119
20
-5.39423195774
10
0.177537259009
20
-5.27246939139
10
0.182097102952
20
-5.15070682489
10
0.186656941472
20
-5.02894425823
10
0.191216774033
20
-4.9071816914
10
0.195776600023
20
-4.78541912436
10
0.200336418747
20
-4.66365655711
10
0.204896229405
20
-4.54189398961
10
0.209456031075
20
-4.42013142185
10
0.214015822693
20
-4.29836885378
10
0.218575603015
20
-4.17660628538
10
0.223135370586
20
-4.05484371659
10
0.227695123689
20
-3.93308114737
10
0.232254860286
20
-3.81131857766
10
0.236814577934
20
-3.68955600738
10
0.241374273686
20
-3.56779343644
10
0.24593394395
20
-3.44603086474
10
0.2504935843
20
-3.32426829214
10
0.255053189227
20
-3.20250571848
10
0.259612751779
20
-3.08074314355
10
0.264172263058
20
-2.95898056709
10
0.268731711487
20
-2.83721798874
0
LWPOLYLINE
8
main_beam_width
70
0
90
100
10
0.0218609694603
20
-14.897840745
10
0.0245989830674
20
-14.7760235943
10
0.0273369968069
20
-14.6542064436
10
0.0300750106821
20
-14.5323892929
10
0.032813024697
20
-14.4105721423
10
0.0355510388554
20
-14.2887549916
10
0.0382890531613
20
-14.166937841
10
0.041027067619
20
-14.0451206903
10
0.0437650822329
20
-13.9233035396
10
0.0465030970074
20
-13.801486389
10
0.0492411119473
20
-13.6796692384
10
0.0519791270576
20
-13.5578520877
10
0.0547171423431
20
-13.4360349371
10
0.0574551578094
20
-13.3142177865
10
0.0601931734619
20
-13.1924006359
10
0.0629311893063
20
-13.0705834852
10
0.0656692053486
20
-12.9487663346
10
0.0684072215951
20
-12.826949184
10
0.0711452380522
20
-12.7051320334
10
0.0738832547268
20
-12.5833148829
10
0.0766212716258
20
-12.4614977323
10
0.0793592887567
20
-12.3396805817
10
0.0820973061272
20
-12.2178634311
10
0.0848353237453
20
-12.0960462806
10
0.0875733416195
20
-11.97422913
10
0.0903113597585
20
-11.8524119795
10
0.0930493781715
20
-11.7305948289
10
0.0957873968683
20
-11.6087776784
10
0.0985254158588
20
-11.4869605279
10
0.101263435154
20
-11.3651433774
10
0.104001454764
20
-11.2433262269
10
0.106739474702
20
-11.1215090764
10
0.109477494978
20
-10.9996919259
10
0.112215515607
20
-10.8778747754
10
0.114953536602
20
-10.756057625
10
0.117691557977
20
-10.6342404745
10
0.120429579746
20
-10.5124233241
10
0.123167601926
20
-10.3906061737
10
0.125905624533
20
-10.2687890233
10
0.128643647585
20
-10.1469718729
10
0.1313816711
20
-10.0251547225
10
0.134119695097
20
-9.90333757212
10
0.136857719598
20
-9.78152042177
10
0.139595744623
20
-9.65970327143
10
0.142333770197
20
-9.53788612111
10
0.145071796343
20
-9.41606897081
10
0.147809823087
20
-9.29425182052
10
0.150547850457
20
-9.17243467025
10
0.153285878482
20
-9.05061752001
10
0.156023907194
20
-8.92880036978
10
0.158761936624
20
-8.80698321957
10
0.16149996681
20
-8.68516606939
10
0.164237997787
20
-8.56334891923
10
0.166976029596
20
-8.4415317691
10
0.169714062279
20
-8.31971461899
10
0.172452095884
20
-8.19789746891
10
0.175190130458
20
-8.07608031886
10
0.177928166055
20
-7.95426316884
10
0.180666202731
20
-7.83244601885
10
0.183404240546
20
-7.71062886889
10
0.186142279566
20
-7.58881171897
10
0.188880319862
20
-7.46699456909
10
0.19161836151
20
-7.34517741925
10
0.194356404592
20
-7.22336026946
10
0.197094449196
20
-7.10154311971
10
0.199832495421
20
-6.97972597
10
0.20257054337
20
-6.85790882035
10
0.205308593158
20
-6.73609167076
10
0.208046644909
20
-6.61427452122
10
0.210784698761
20
-6.49245737175
10
0.213522754861
20
-6.37064022234
10
0.216260813373
20
-6.24882307301
10
0.218998874477
20
-6.12700592375
10
0.22173693837
20
-6.00518877458
10
0.224475005272
20
-5.88337162549
10
0.227213075424
20
-5.76155447651
10
0.229951149096
20
-5.63973732763
10
0.232689226586
20
-5.51792017886
10
0.235427308229
20
-5.39610303022
10
0.238165394399
20
-5.27428588171
10
0.240903485516
20
-5.15246873336
10
0.243641582056
20
-5.03065158516
10
0.246379684555
20
-4.90883443715
10
0.249117793625
20
-4.78701728933
10
0.251855909961
20
-4.66520014172
10
0.254594034364
20
-4.54338299436
10
0.257332167753
20
-4.42156584727
10
0.260070311196
20
-4.29974870048
10
0.262808465934
20
-4.17793155403
10
0.265546633423
20
-4.05611440796
10
0.268284815379
20
-3.93429726233
10
0.271023013842
20
-3.81248011719
10
0.273761231254
20
-3.69066297261
10
0.276499470562
20
-3.56884582869
10
0.279237735359
20
-3.44702868554
10
0.281976030068
20
-3.32521154328
10
0.284714360201
20
-3.20339440209
10
0.287452732709
20
-3.08157726216
10
0.290191156491
20
-2.95976012377
10
0.292929643122
20
-2.83794298726
0
LINE
8
main_beam
10
-0.0804171081677
20
-14.8947763733
11
0.280830677304
21
-2.837580488
0
LWPOLYLINE
8
main_beam_width
70
0
90
100
10
-0.182695185796
20
-14.8917120017
10
-0.178135264343
20
-14.7699494375
10
-0.173575343022
20
-14.6481868733
10
-0.169015421837
20
-14.5264243092
10
-0.164455500792
20
-14.404661745
10
-0.159895579891
20
-14.2828991808
10
-0.155335659136
20
-14.1611366166
10
-0.150775738534
20
-14.0393740524
10
-0.146215818088
20
-13.9176114882
10
-0.141655897802
20
-13.795848924
10
-0.137095977682
20
-13.6740863598
10
-0.132536057733
20
-13.5523237955
10
-0.127976137958
20
-13.4305612313
10
-0.123416218364
20
-13.3087986671
10
-0.118856298957
20
-13.1870361028
10
-0.114296379741
20
-13.0652735386
10
-0.109736460723
20
-12.9435109744
10
-0.10517654191
20
-12.8217484101
10
-0.100616623307
20
-12.6999858458
10
-0.0960567049214
20
-12.5782232816
10
-0.0914967867604
20
-12.4564607173
10
-0.0869368688312
20
-12.334698153
10
-0.0823769511417
20
-12.2129355887
10
-0.0778170336998
20
-12.0911730244
10
-0.0732571165139
20
-11.9694104601
10
-0.0686971995928
20
-11.8476478958
10
-0.0641372829458
20
-11.7258853315
10
-0.0595773665825
20
-11.6041227672
10
-0.055017450513
20
-11.4823602028
10
-0.0504575347479
20
-11.3605976385
10
-0.0458976192982
20
-11.2388350741
10
-0.0413377041757
20
-11.1170725098
10
-0.0367777893925
20
-10.9953099454
10
-0.0322178749615
20
-10.873547381
10
-0.0276579608961
20
-10.7517848166
10
-0.0230980472107
20
-10.6300222522
10
-0.01853813392
20
-10.5082596878
10
-0.0139782210399
20
-10.3864971233
10
-0.00941830858698
20
-10.2647345589
10
-0.00485839657865
20
-10.1429719944
10
-0.000298485033403
20
-10.02120943
10
0.00426142602928
20
-9.89944686548
10
0.00882133658879
20
-9.77768430098
10
0.0133812466233
20
-9.65592173646
10
0.0179411561099
20
-9.53415917193
10
0.022501065024
20
-9.41239660738
10
0.0270609733396
20
-9.29063404281
10
0.0316208810295
20
-9.16887147822
10
0.0361807880642
20
-9.04710891361
10
0.0407406944128
20
-8.92534634898
10
0.0453006000422
20
-8.80358378434
10
0.0498605049172
20
-8.68182121966
10
0.0544204090002
20
-8.56005865497
10
0.0589803122512
20
-8.43829609025
10
0.0635402146274
20
-8.3165335255
10
0.0681001160828
20
-8.19477096072
10
0.0726600165685
20
-8.07300839592
10
0.0772199160318
20
-7.95124583109
10
0.0817798144162
20
-7.82948326622
10
0.0863397116609
20
-7.70772070132
10
0.0908996077006
20
-7.58595813638
10
0.0954595024647
20
-7.46419557141
10
0.100019395877
20
-7.34243300639
10
0.104579287856
20
-7.22067044133
10
0.109139178311
20
-7.09890787623
10
0.113699067147
20
-6.97714531108
10
0.118258954258
20
-6.85538274587
10
0.12281883953
20
-6.73362018061
10
0.127378722838
20
-6.61185761529
10
0.131938604047
20
-6.49009504991
10
0.136498483007
20
-6.36833248446
10
0.141058359555
20
-6.24656991894
10
0.145618233511
20
-6.12480735334
10
0.150178104677
20
-6.00304478766
10
0.154737972836
20
-5.88128222189
10
0.159297837743
20
-5.75951965602
10
0.163857699132
20
-5.63775709004
10
0.168417556702
20
-5.51599452396
10
0.172977410119
20
-5.39423195774
10
0.177537259009
20
-5.27246939139
10
0.182097102952
20
-5.15070682489
10
0.186656941472
20
-5.02894425823
10
0.191216774033
20
-4.9071816914
10
0.195776600023
20
-4.78541912436
10
0.200336418747
20
-4.66365655711
10
0.204896229405
20
-4.54189398961
10
0.209456031075
20
-4.42013142185
10
0.214015822693
20
-4.29836885378
10
0.218575603015
20
-4.17660628538
10
0.223135370586
20
-4.05484371659
10
0.227695123689
20
-3.93308114737
10
0.232254860286
20
-3.81131857766
10
0.236814577934
20
-3.68955600738
10
0.241374273686
20
-3.56779343644
10
0.24593394395
20
-3.44603086474
10
0.2504935843
20
-3.32426829214
10
0.255053189227
20
-3.20250571848
10
0.259612751779
20
-3.08074314355
10
0.264172263058
20
-2.95898056709
10
0.268731711487
20
-2.83721798874
0
LWPOLYLINE
8
main_beam_width
70
0
90
100
10
0.0218609694603
20
-14.897840745
10
0.0245989830675
20
-14.7760235943
10
0.0273369968069
20
-14.6542064436
10
0.0300750106821
20
-14.5323892929
10
0.032813024697
20
-14.4105721423
10
0.0355510388554
20
-14.2887549916
10
0.0382890531613
20
-14.166937841
10
0.041027067619
20
-14.0451206903
10
0.0437650822329
20
-13.9233035396
10
0.0465030970074
20
-13.801486389
10
0.0492411119474
20
-13.6796692384
10
0.0519791270576
20
-13.5578520877
10
0.0547171423432
20
-13.4360349371
10
0.0574551578094
20
-13.3142177865
10
0.0601931734619
20
-13.1924006359
10
0.0629311893063
20
-13.0705834852
10
0.0656692053486
20
-12.9487663346
10
0.0684072215951
20
-12.826949184
10
0.0711452380522
20
-12.7051320334
10
0.0738832547268
20
-12.5833148829
10
0.0766212716258
20
-12.4614977323
10
0.0793592887567
20
-12.3396805817
10
0.0820973061272
20
-12.2178634311
10
0.0848353237453
20
-12.0960462806
10
0.0875733416195
20
-11.97422913
10
0.0903113597585
20
-11.8524119795
10
0.0930493781715
20
-11.7305948289
10
0.0957873968683
20
-11.6087776784
10
0.0985254158588
20
-11.4869605279
10
0.101263435154
20
-11.3651433774
10
0.104001454764
20
-11.2433262269
10
0.106739474702
20
-11.1215090764
10
0.109477494978
20
-10.9996919259
10
0.112215515607
20
-10.8778747754
10
0.114953536602
20
-10.756057625
10
0.117691557977
20
-10.6342404745
10
0.120429579746
20
-10.5124233241
10
0.123167601926
20
-10.3906061737
10
0.125905624533
20
-10.2687890233
10
0.128643647585
20
-10.1469718729
10
0.1313816711
20
-10.0251547225
10
0.134119695097
20
-9.90333757212
10
0.136857719598
20
-9.78152042177
10
0.139595744623
20
-9.65970327143
10
0.142333770197
20
-9.53788612111
10
0.145071796343
20
-9.41606897081
10
0.147809823087
20
-9.29425182052
10
0.150547850457
20
-9.17243467025
10
0.153285878482
20
-9.05061752001
10
0.156023907194
20
-8.92880036978
10
0.158761936624
20
-8.80698321957
10
0.16149996681
20
-8.68516606939
10
0.164237997787
20
-8.56334891923
10
0.166976029596
20
-8.4415317691
10
0.169714062279
20
-8.31971461899
10
0.172452095884
20
-8.19789746891
10
0.175190130458
20
-8.07608031886
10
0.177928166055
20
-7.95426316884
10
0.180666202731
20
-7.83244601885
10
0.183404240546
20
-7.71062886889
10
0.186142279567
20
-7.58881171897
10
0.188880319862
20
-7.46699456909
10
0.19161836151
20
-7.34517741925
10
0.194356404592
20
-7.22336026946
10
0.197094449196
20
-7.10154311971
10
0.199832495421
20
-6.97972597
10
0.20257054337
20
-6.85790882035
10
0.205308593158
20
-6.73609167076
10
0.208046644909
20
-6.61427452122
10
0.210784698761
20
-6.49245737175
10
0.213522754861
20
-6.37064022234
10
0.216260813373
20
-6.24882307301
10
0.218998874477
20
-6.12700592375
10
0.22173693837
20
-6.00518877458
10
0.224475005272
20
-5.88337162549
10
0.227213075424
20
-5.76155447651
10
0.229951149096
20
-5.63973732763
10
0.232689226586
20
-5.51792017886
10
0.235427308229
20
-5.39610303022
10
0.238165394399
20
-5.27428588171
10
0.240903485516
20
-5.15246873336
10
0.243641582056
20
-5.03065158516
10
0.246379684555
20
-4.90883443715
10
0.249117793625
20
-4.78701728933
10
0.251855909961
20
-4.66520014172
10
0.254594034364
20
-4.54338299436
10
0.257332167753
20
-4.42156584727
10
0.260070311196
20
-4.29974870048
10
0.262808465934
20
-4.17793155403
10
0.265546633423
20
-4.05611440796
10
0.268284815379
20
-3.93429726233
10
0.271023013842
20
-3.81248011719
10
0.273761231254
20
-3.69066297261
10
0.276499470562
20
-3.56884582869
10
0.279237735359
20
-3.44702868554
10
0.281976030068
20
-3.32521154328
10
0.284714360201
20
-3.20339440209
10
0.287452732709
20
-3.08157726216
10
0.290191156491
20
-2.95976012377
10
0.292929643122
20
-2.83794298726
0
LINE
8
main_beam
10
0.0607045167568
20
23.2261658347
11
0.0607040108888
21
23.3761658337
0
LWPOLYLINE
8
main_beam_width
70
0
90
10
10
-0.0420562954362
20
23.2261654881
10
-0.0420563554369
20
23.2428321547
10
-0.04205641544
20
23.2594988212
10
-0.0420564754454
20
23.2761654878
10
-0.0420565354532
20
23.2928321544
10
-0.0420565954634
20
23.3094988209
10
-0.042056655476
20
23.3261654875
10
-0.0420567154909
20
23.342832154
10
-0.0420567755083
20
23.3594988206
10
-0.042056835528
20
23.3761654871
0
LWPOLYLINE
8
main_beam_width
70
0
90
10
10
0.16346532895
20
23.2261661813
10
0.163465276535
20
23.2428328478
10
0.163465224123
20
23.2594995144
10
0.163465171714
20
23.2761661809
10
0.163465119306
20
23.2928328475
10
0.163465066901
20
23.309499514
10
0.163465014499
20
23.3261661806
10
0.163464962099
20
23.3428328471
10
0.163464909701
20
23.3594995137
10
0.163464857306
20
23.3761661802
0
LINE
8
main_beam
10
0.060704805165
20
23.0761658357
11
4.6551346237e-05
21
4.65513462373e-05
0
LWPOLYLINE
8
main_beam_width
70
0
90
10
10
0.163464593676
20
23.0758957197
10
0.156724234368
20
20.5118824673
10
0.149983931351
20
17.9478692148
10
0.143243684627
20
15.3838559622
10
0.136503494195
20
12.8198427094
10
0.129763360058
20
10.2558294564
10
0.123023282215
20
7.6918162033
10
0.116283260667
20
5.12780295004
10
0.109543295413
20
2.56378969664
10
0.102803386455
20
-0.000223556903283
0
LWPOLYLINE
8
main_beam_width
70
0
90
10
10
-0.0420549833459
20
23.0764359517
10
-0.0487942359973
20
20.5124226965
10
-0.0555335449404
20
17.9484094413
10
-0.0622729101758
20
15.3843961864
10
-0.0690123317044
20
12.8203829315
10
-0.0757518095267
20
10.2563696768
10
-0.0824913436433
20
7.69235642231
10
-0.0892309340546
20
5.12834316792
10
-0.095970580761
20
2.56432991369
10
-0.102710283763
20
0.000316659595757
0
LINE
8
main_beam
10
-2.70308952781
20
0.257939190521
11
-14.7623321516
21
-0.0387580718791
0
LWPOLYLINE
8
main_beam_width
70
0
90
100
10
-2.70279060461
20
0.245789474837
10
-2.82457863634
20
0.241878028832
10
-2.94636666655
20
0.237966520732
10
-3.0681546955
20
0.234054961976
10
-3.18994272343
20
0.230143361356
10
-3.3117307505
20
0.226231725742
10
-3.43351877684
20
0.222320060579
10
-3.55530680256
20
0.218408370236
10
-3.67709482774
20
0.214496658265
10
-3.79888285247
20
0.210584927576
10
-3.92067087679
20
0.206673180582
10
-4.04245890077
20
0.202761419297
10
-4.16424692443
20
0.198849645418
10
-4.28603494782
20
0.194937860382
10
-4.40782297097
20
0.191026065417
10
-4.52961099389
20
0.187114261575
10
-4.65139901663
20
0.183202449766
10
-4.77318703918
20
0.179290630779
10
-4.89497506157
20
0.175378805303
10
-5.01676308382
20
0.171466973942
10
-5.13855110594
20
0.167555137225
10
-5.26033912794
20
0.163643295621
10
-5.38212714983
20
0.159731449546
10
-5.50391517162
20
0.15581959937
10
-5.62570319331
20
0.151907745423
10
-5.74749121492
20
0.147995888
10
-5.86927923645
20
0.144084027367
10
-5.9910672579
20
0.140172163762
10
-6.11285527929
20
0.136260297403
10
-6.23464330062
20
0.132348428484
10
-6.35643132189
20
0.128436557183
10
-6.4782193431
20
0.124524683661
10
-6.60000736426
20
0.120612808065
10
-6.72179538537
20
0.11670093053
10
-6.84358340644
20
0.112789051179
10
-6.96537142747
20
0.108877170125
10
-7.08715944846
20
0.104965287471
10
-7.20894746941
20
0.101053403313
10
-7.33073549033
20
0.0971415177383
10
-7.45252351121
20
0.0932296308293
10
-7.57431153206
20
0.0893177426605
10
-7.69609955288
20
0.0854058533017
10
-7.81788757368
20
0.0814939628174
10
-7.93967559445
20
0.0775820712676
10
-8.06146361519
20
0.0736701787082
10
-8.18325163591
20
0.069758285191
10
-8.30503965661
20
0.0658463907647
10
-8.42682767729
20
0.0619344954743
10
-8.54861569794
20
0.0580225993623
10
-8.67040371858
20
0.0541107024683
10
-8.7921917392
20
0.0501988048292
10
-8.9139797598
20
0.0462869064799
10
-9.03576778039
20
0.042375007453
10
-9.15755580096
20
0.0384631077792
10
-9.27934382151
20
0.0345512074873
10
-9.40113184205
20
0.0306393066045
10
-9.52291986258
20
0.0267274051564
10
-9.64470788309
20
0.0228155031671
10
-9.76649590359
20
0.0189036006594
10
-9.88828392408
20
0.0149916976548
10
-10.0100719446
20
0.0110797941736
10
-10.131859965
20
0.00716789023519
10
-10.2536479855
20
0.00325598585768
10
-10.3754360059
20
-0.000655918941637
10
-10.4972240263
20
-0.00456782414638
10
-10.6190120468
20
-0.008479729741
10
-10.7408000672
20
-0.0123916357108
10
-10.8625880876
20
-0.0163035420416
10
-10.984376108
20
-0.0202154487203
10
-11.1061641284
20
-0.0241273557341
10
-11.2279521488
20
-0.0280392630708
10
-11.3497401691
20
-0.0319511707192
10
-11.4715281895
20
-0.0358630786681
10
-11.5933162099
20
-0.0397749869071
10
-11.7151042302
20
-0.0436868954262
10
-11.8368922505
20
-0.047598804216
10
-11.9586802709
20
-0.0515107132673
10
-12.0804682912
20
-0.0554226225715
10
-12.2022563115
20
-0.0593345321202
10
-12.3240443319
20
-0.0632464419054
10
-12.4458323522
20
-0.0671583519197
10
-12.5676203725
20
-0.0710702621556
10
-12.6894083928
20
-0.0749821726062
10
-12.8111964131
20
-0.0788940832648
10
-12.9329844334
20
-0.0828059941251
10
-13.0547724537
20
-0.0867179051808
10
-13.176560474
20
-0.090629816426
10
-13.2983484942
20
-0.094541727855
10
-13.4201365145
20
-0.0984536394625
10
-13.5419245348
20
-0.102365551243
10
-13.6637125551
20
-0.106277463192
10
-13.7855005753
20
-0.110189375304
10
-13.9072885956
20
-0.114101287575
10
-14.0290766158
20
-0.1180132
10
-14.1508646361
20
-0.121925112575
10
-14.2726526563
20
-0.125837025296
10
-14.3944406766
20
-0.129748938158
10
-14.5162286968
20
-0.133660851158
10
-14.6380167171
20
-0.137572764292
10
-14.7598047373
20
-0.141484677557
0
LWPOLYLINE
8
main_beam_width
70
0
90
100
10
-2.70338845101
20
0.270088906204
10
-2.82522148239
20
0.268006468121
10
-2.94705451529
20
0.265924092132
10
-3.06888754944
20
0.2638417668
10
-3.19072058462
20
0.26175948333
10
-3.31255362066
20
0.259677234855
10
-3.43438665743
20
0.25759501593
10
-3.55621969482
20
0.255512822183
10
-3.67805273274
20
0.253430650066
10
-3.79988577112
20
0.251348496666
10
-3.9217188099
20
0.249266359571
10
-4.04355184904
20
0.247184236767
10
-4.16538488848
20
0.245102126557
10
-4.2872179282
20
0.243020027504
10
-4.40905096816
20
0.240937938381
10
-4.53088400834
20
0.238855858134
10
-4.65271704872
20
0.236773785854
10
-4.77455008927
20
0.234691720752
10
-4.89638312998
20
0.232609662138
10
-5.01821617084
20
0.230527609411
10
-5.14004921183
20
0.228445562039
10
-5.26188225294
20
0.226363519554
10
-5.38371529416
20
0.22428148154
10
-5.50554833548
20
0.222199447627
10
-5.62738137689
20
0.220117417485
10
-5.74921441839
20
0.21803539082
10
-5.87104745997
20
0.215953367364
10
-5.99288050162
20
0.213871346879
10
-6.11471354334
20
0.21178932915
10
-6.23654658512
20
0.20970731398
10
-6.35837962696
20
0.207625301192
10
-6.48021266885
20
0.205543290626
10
-6.6020457108
20
0.203461282132
10
-6.72387875279
20
0.201379275578
10
-6.84571179483
20
0.199297270841
10
-6.96754483691
20
0.197215267806
10
-7.08937787903
20
0.195133266371
10
-7.21121092119
20
0.19305126644
10
-7.33304396338
20
0.190969267926
10
-7.4548770056
20
0.188887270746
10
-7.57671004786
20
0.186805274826
10
-7.69854309014
20
0.184723280096
10
-7.82037613245
20
0.182641286491
10
-7.94220917479
20
0.180559293952
10
-8.06404221715
20
0.178477302422
10
-8.18587525954
20
0.176395311851
10
-8.30770830195
20
0.174313322188
10
-8.42954134438
20
0.17223133339
10
-8.55137438683
20
0.170149345413
10
-8.6732074293
20
0.168067358218
10
-8.79504047179
20
0.165985371768
10
-8.91687351429
20
0.163903386029
10
-9.03870655682
20
0.161821400967
10
-9.16053959935
20
0.159739416551
10
-9.28237264191
20
0.157657432754
10
-9.40420568448
20
0.155575449548
10
-9.52603872706
20
0.153493466908
10
-9.64787176965
20
0.151411484808
10
-9.76970481226
20
0.149329503227
10
-9.89153785488
20
0.147247522143
10
-10.0133708975
20
0.145165541535
10
-10.1352039402
20
0.143083561384
10
-10.2570369828
20
0.141001581673
10
-10.3788700255
20
0.138919602383
10
-10.5007030681
20
0.136837623499
10
-10.6225361108
20
0.134755645005
10
-10.7443691535
20
0.132673666886
10
-10.8662021962
20
0.130591689128
10
-10.9880352389
20
0.128509711718
10
-11.1098682817
20
0.126427734642
10
-11.2317013244
20
0.12434575789
10
-11.3535343671
20
0.12226378145
10
-11.4753674099
20
0.12018180531
10
-11.5972004526
20
0.11809982946
10
-11.7190334954
20
0.11601785389
10
-11.8408665381
20
0.113935878591
10
-11.9626995809
20
0.111853903554
10
-12.0845326237
20
0.109771928769
10
-12.2063656665
20
0.107689954229
10
-12.3281987092
20
0.105607979925
10
-12.450031752
20
0.10352600585
10
-12.5718647948
20
0.101444031997
10
-12.6936978376
20
0.0993620583591
10
-12.8155308804
20
0.0972800849288
10
-12.9373639233
20
0.0951981117002
10
-13.0591969661
20
0.0931161386669
10
-13.1810300089
20
0.0910341658233
10
-13.3028630517
20
0.0889521931635
10
-13.4246960946
20
0.0868702206821
10
-13.5465291374
20
0.0847882483739
10
-13.6683621802
20
0.0827062762338
10
-13.7901952231
20
0.0806243042571
10
-13.9120282659
20
0.078542332439
10
-14.0338613088
20
0.0764603607751
10
-14.1556943516
20
0.0743783892611
10
-14.2775273945
20
0.0722964178929
10
-14.3993604374
20
0.0702144466663
10
-14.5211934802
20
0.0681324755776
10
-14.6430265231
20
0.066050504623
10
-14.764859566
20
0.063968533799
0
LINE
8
main_beam
10
0.280830677304
20
-2.837580488
11
0.165454530809
21
-17.2551296376
0
LWPOLYLINE
8
main_beam_width
70
0
90
10
10
0.292934684794
20
-2.83767735008
10
0.280060916138
20
-4.43962682188
10
0.267200772205
20
-6.04157640271
10
0.254354391357
20
-7.64352609368
10
0.241521866027
20
-9.24547589553
10
0.228703241133
20
-10.8474258086
10
0.215898513312
20
-12.4493758329
10
0.203107630969
20
-14.051325968
10
0.19033049518
20
-15.6532762131
10
0.17756696137
20
-17.2552265671
0
LWPOLYLINE
8
main_beam_width
70
0
90
10
10
0.268726669815
20
-2.83748362592
10
0.255961294805
20
-4.43943396514
10
0.243182295073
20
-6.04138419533
10
0.230389532254
20
-7.64333431538
10
0.217582913919
20
-9.24528432455
10
0.204762395147
20
-10.8472342225
10
0.191927979303
20
-12.4491840092
10
0.179079717979
20
-14.0511336851
10
0.166217710103
20
-15.653083251
10
0.153342100247
20
-17.2550327081
0
LINE
8
main_beam
10
26.4891205797
20
-0.106015552149
11
26.6391205789
21
-0.106015166348
0
LWPOLYLINE
8
main_beam_width
70
0
90
10
10
26.4891203143
20
-0.0028336413684
10
26.5057869809
20
-0.00283359427085
10
26.5224536474
20
-0.00283354717095
10
26.539120314
20
-0.00283350006871
10
26.5557869806
20
-0.00283345296411
10
26.5724536472
20
-0.00283340585717
10
26.5891203138
20
-0.00283335874787
10
26.6057869803
20
-0.00283331163623
10
26.6224536469
20
-0.00283326452223
10
26.6391203135
20
-0.00283321740589
0
LWPOLYLINE
8
main_beam_width
70
0
90
10
10
26.489120845
20
-0.20919746293
10
26.5057875116
20
-0.209197424294
10
26.5224541782
20
-0.20919738566
10
26.5391208448
20
-0.209197347029
10
26.5557875114
20
-0.2091973084
10
26.5724541779
20
-0.209197269774
10
26.5891208445
20
-0.20919723115
10
26.6057875111
20
-0.209197192528
10
26.6224541777
20
-0.209197153908
10
26.6391208443
20
-0.209197115291
0
LINE
8
main_beam
10
0.165454530809
20
-17.2551296376
11
0.16465450722
21
-17.3551015968
0
LWPOLYLINE
8
main_beam_width
70
0
90
10
10
0.17756696137
20
-17.2552265671
10
0.177478502998
20
-17.266334566
10
0.177390044933
20
-17.2774425649
10
0.177301587174
20
-17.2885505639
10
0.177213129722
20
-17.2996585628
10
0.177124672577
20
-17.3107665618
10
0.177036215739
20
-17.3218745607
10
0.176947759207
20
-17.3329825597
10
0.176859302982
20
-17.3440905586
10
0.176770847063
20
-17.3551985576
0
LWPOLYLINE
8
main_beam_width
70
0
90
10
10
0.153342100247
20
-17.2550327081
10
0.153252775599
20
-17.2661407001
10
0.153163450645
20
-17.2772486921
10
0.153074125384
20
-17.2883566841
10
0.152984799816
20
-17.2994646761
10
0.152895473941
20
-17.3105726681
10
0.15280614776
20
-17.3216806601
10
0.152716821272
20
-17.3327886521
10
0.152627494478
20
-17.3438966441
10
0.152538167376
20
-17.3550046361
0
LINE
8
main_beam
10
0.131964939811
20
-0.0371062484662
11
26.3391205804
21
-0.106015772104
0
LWPOLYLINE
8
main_beam_width
70
0
90
10
10
0.132236235499
20
0.0660709023842
10
3.04414241812
20
0.0584144158208
10
5.95604860094
20
0.0507580009891
10
8.86795478394
20
0.0431016578886
10
11.7798609671
20
0.0354453865186
10
14.6917671505
20
0.0277891868786
10
17.6036733341
20
0.0201330589675
10
20.5155795178
20
0.0124770027842
10
23.4274857018
20
0.00482101832771
10
26.3393918859
20
-0.00283489440346
0
LWPOLYLINE
8
main_beam_width
70
0
90
10
10
0.131693644123
20
-0.140283399317
10
3.04359982608
20
-0.147940140228
10
5.95550600785
20
-0.155596952872
10
8.86741218943
20
-0.163253837246
10
11.7793183708
20
-0.170910793351
10
14.691224552
20
-0.178567821186
10
17.603130733
20
-0.18622492075
10
20.5150369139
20
-0.193882092042
10
23.4269430945
20
-0.20153933506
10
26.338849275
20
-0.209196649804
0
LINE
8
main_beam
10
0.060704805165
20
23.0761658357
11
0.0607045167568
21
23.2261658347
0
LWPOLYLINE
8
main_beam_width
70
0
90
10
10
-0.042055987603
20
23.0761656381
10
-0.0420560218037
20
23.0928323047
10
-0.0420560560051
20
23.1094989712
10
-0.0420560902073
20
23.1261656378
10
-0.0420561244103
20
23.1428323043
10
-0.0420561586141
20
23.1594989709
10
-0.0420561928186
20
23.1761656375
10
-0.0420562270239
20
23.192832304
10
-0.04205626123
20
23.2094989706
10
-0.0420562954368
20
23.2261656371
0
LWPOLYLINE
8
main_beam_width
70
0
90
10
10
0.163465597933
20
23.0761660333
10
0.163465568043
20
23.0928326998
10
0.163465538154
20
23.1094993664
10
0.163465508265
20
23.126166033
10
0.163465478377
20
23.1428326995
10
0.16346544849
20
23.1594993661
10
0.163465418604
20
23.1761660326
10
0.163465388719
20
23.1928326992
10
0.163465358834
20
23.2094993657
10
0.16346532895
20
23.2261660323
0
LINE
8
main_beam
10
0.280830677304
20
-2.837580488
11
0.165454530809
21
-17.2551296376
0
LWPOLYLINE
8
main_beam_width
70
0
90
10
10
0.292934684794
20
-2.83767735008
10
0.280060916138
20
-4.43962682188
10
0.267200772205
20
-6.04157640271
10
0.254354391357
20
-7.64352609368
10
0.241521866027
20
-9.24547589553
10
0.228703241133
20
-10.8474258086
10
0.215898513312
20
-12.4493758329
10
0.203107630969
20
-14.051325968
10
0.19033049518
20
-15.6532762131
10
0.17756696137
20
-17.2552265671
0
LWPOLYLINE
8
main_beam_width
70
0
90
10
10
0.268726669815
20
-2.83748362592
10
0.255961294805
20
-4.43943396514
10
0.243182295073
20
-6.04138419533
10
0.230389532254
20
-7.64333431538
10
0.217582913919
20
-9.24528432455
10
0.204762395147
20
-10.8472342225
10
0.191927979303
20
-12.4491840092
10
0.179079717979
20
-14.0511336851
10
0.166217710103
20
-15.653083251
10
0.153342100247
20
-17.2550327081
0
LINE
8
main_beam
10
26.3391205804
20
-0.106015772104
11
26.4891205797
21
-0.106015552149
0
LWPOLYLINE
8
main_beam_width
70
0
90
10
10
26.3391204291
20
-0.00283388299466
10
26.3557870957
20
-0.00283385615032
10
26.3724537623
20
-0.00283382930521
10
26.3891204289
20
-0.00283380245933
10
26.4057870955
20
-0.00283377561269
10
26.422453762
20
-0.00283374876529
10
26.4391204286
20
-0.00283372191713
10
26.4557870952
20
-0.0028336950682
10
26.4724537618
20
-0.00283366821851
10
26.4891204284
20
-0.00283364136805
0
LWPOLYLINE
8
main_beam_width
70
0
90
10
10
26.3391207317
20
-0.209197661213
10
26.3557873983
20
-0.209197639179
10
26.3724540649
20
-0.209197617145
10
26.3891207315
20
-0.209197595112
10
26.4057873981
20
-0.20919757308
10
26.4224540646
20
-0.209197551048
10
26.4391207312
20
-0.209197529018
10
26.4557873978
20
-0.209197506988
10
26.4724540644
20
-0.209197484959
10
26.489120731
20
-0.20919746293
0
LINE
8
main_beam
10
4.65513462373e-05
20
4.65513462364e-05
11
0.0374789572554
21
-0.132864634051
0
LWPOLYLINE
8
main_beam_width
70
0
90
10
10
0.110671629073
20
0.0312024153229
10
0.114830784627
20
0.0164345056489
10
0.118989940181
20
0.00166659597502
10
0.123149095736
20
-0.0131013136986
10
0.127308251291
20
-0.0278692233721
10
0.131467406847
20
-0.0426371330454
10
0.135626562404
20
-0.0574050427184
10
0.139785717962
20
-0.0721729523913
10
0.143944873521
20
-0.0869408620639
10
0.14810402908
20
-0.101708771736
0
LWPOLYLINE
8
main_beam_width
70
0
90
10
10
-0.110578526381
20
-0.0311093126305
10
-0.10641936951
20
-0.0458772219335
10
-0.10226021264
20
-0.0606451312367
10
-0.0981010557703
20
-0.0754130405402
10
-0.0939418989016
20
-0.0901809498438
10
-0.0897827420336
20
-0.104948859148
10
-0.0856235851663
20
-0.119716768452
10
-0.0814644282998
20
-0.134484677756
10
-0.0773052714339
20
-0.14925258706
10
-0.0731461145687
20
-0.164020496365
0
LINE
8
main_beam
10
4.6551346216e-05
20
4.65513462143e-05
11
0.0374789572554
21
-0.132864634051
0
LWPOLYLINE
8
main_beam_width
70
0
90
10
10
0.110671629073
20
0.0312024153229
10
0.114830784627
20
0.0164345056489
10
0.118989940181
20
0.001666595975
10
0.123149095736
20
-0.0131013136987
10
0.127308251291
20
-0.0278692233721
10
0.131467406847
20
-0.0426371330454
10
0.135626562404
20
-0.0574050427184
10
0.139785717962
20
-0.0721729523913
10
0.14394487352
20
-0.086940862064
10
0.14810402908
20
-0.101708771736
0
LWPOLYLINE
8
main_beam_width
70
0
90
10
10
-0.110578526381
20
-0.0311093126305
10
-0.10641936951
20
-0.0458772219335
10
-0.10226021264
20
-0.0606451312368
10
-0.0981010557703
20
-0.0754130405402
10
-0.0939418989016
20
-0.0901809498438
10
-0.0897827420336
20
-0.104948859148
10
-0.0856235851664
20
-0.119716768452
10
-0.0814644282998
20
-0.134484677756
10
-0.0773052714339
20
-0.14925258706
10
-0.0731461145688
20
-0.164020496365
0
LINE
8
main_beam
10
0.131964939811
20
-0.0371062484663
11
4.65513462143e-05
21
4.65513462143e-05
0
LWPOLYLINE
8
main_beam_width
70
0
90
10
10
0.100809074168
20
-0.147731332108
10
0.0861514756357
20
-0.14360324258
10
0.0714938771031
20
-0.139475153053
10
0.0568362785704
20
-0.135347063526
10
0.0421786800374
20
-0.131218974
10
0.0275210815042
20
-0.127090884475
10
0.0128634829708
20
-0.12296279495
10
-0.00179411556275
20
-0.118834705426
10
-0.0164517140965
20
-0.114706615903
10
-0.0311093126305
20
-0.110578526381
0
LWPOLYLINE
8
main_beam_width
70
0
90
10
10
0.163120805453
20
0.0735188351756
10
0.148463206549
20
0.0776469233837
10
0.133805607645
20
0.0817750115924
10
0.119148008741
20
0.0859030998018
10
0.104490409838
20
0.090031188012
10
0.0898328109345
20
0.0941592762228
10
0.0751752120313
20
0.0982873644343
10
0.0605176131283
20
0.102415452647
10
0.0458600142255
20
0.106543540859
10
0.0312024153229
20
0.110671629073
0
LINE
8
main_beam
10
0.0374789572554
20
-0.132864634051
11
-0.0804171081677
21
-14.8947763733
0
LWPOLYLINE
8
main_beam_width
70
0
90
10
10
0.139799119973
20
-0.133681814428
10
0.126699524646
20
-1.77389422964
10
0.113599952654
20
-3.41410664505
10
0.100500403997
20
-5.05431906064
10
0.0874008786739
20
-6.69453147641
10
0.0743013766861
20
-8.33474389237
10
0.061201898033
20
-9.97495630852
10
0.0481024427146
20
-11.6151687249
10
0.0350030107307
20
-13.2553811414
10
0.0219036020813
20
-14.8955935581
0
LWPOLYLINE
8
main_beam_width
70
0
90
10
10
-0.0648412054623
20
-0.132047453674
10
-0.0779407357848
20
-1.77225986941
10
-0.0910402894422
20
-3.41247228496
10
-0.104139866434
20
-5.05268470032
10
-0.117239466761
20
-6.6928971155
10
-0.130339090423
20
-8.33310953049
10
-0.14343873742
20
-9.97332194529
10
-0.156538407751
20
-11.6135343599
10
-0.169638101417
20
-13.2537467743
10
-0.182737818417
20
-14.8939591886
0
LINE
8
main_beam
10
4.65513462302e-05
20
4.65513462294e-05
11
0.060704805165
21
23.0761658357
0
LWPOLYLINE
8
main_beam_width
70
0
90
10
10
-0.102710283763
20
0.000316659595751
10
-0.095970580761
20
2.56432991369
10
-0.0892309340546
20
5.12834316792
10
-0.0824913436433
20
7.69235642231
10
-0.0757518095267
20
10.2563696768
10
-0.0690123317044
20
12.8203829315
10
-0.0622729101758
20
15.3843961864
10
-0.0555335449404
20
17.9484094413
10
-0.0487942359973
20
20.5124226965
10
-0.0420549833459
20
23.0764359517
0
LWPOLYLINE
8
main_beam_width
70
0
90
10
10
0.102803386455
20
-0.000223556903292
10
0.109543295413
20
2.56378969664
10
0.116283260667
20
5.12780295004
10
0.123023282215
20
7.6918162033
10
0.129763360058
20
10.2558294564
10
0.136503494195
20
12.8198427094
10
0.143243684627
20
15.3838559622
10
0.149983931351
20
17.9478692148
10
0.156724234368
20
20.5118824673
10
0.163464593676
20
23.0758957197
0
LINE
8
main_beam
10
-14.7623321516
20
-0.0387580718791
11
4.65513462302e-05
21
4.65513462294e-05
0
LWPOLYLINE
8
main_beam_width
70
0
90
10
10
-14.7626022612
20
0.0639992654657
10
-13.1223379605
20
0.0683107423095
10
-11.4820736598
20
0.0726222421919
10
-9.84180935922
20
0.076933765113
10
-8.20154505868
20
0.0812453110729
10
-6.5612807582
20
0.0855568800716
10
-4.92101645779
20
0.0898684721092
10
-3.28075215743
20
0.0941800871856
10
-1.64048785714
20
0.098491725301
10
-0.000223556903292
20
0.102803386455
0
LWPOLYLINE
8
main_beam_width
70
0
90
10
10
-14.7620620421
20
-0.141515409224
10
-13.1217977421
20
-0.137203636462
10
-11.4815334421
20
-0.132891886739
10
-9.84126914205
20
-0.128580160054
10
-8.20100484193
20
-0.124268456409
10
-6.56074054174
20
-0.119956775802
10
-4.9204762415
20
-0.115645118234
10
-3.28021194119
20
-0.111333483704
10
-1.63994764083
20
-0.107021872214
10
0.000316659595752
20
-0.102710283763
0
LINE
8
main_beam
10
26.3391205804
20
-0.106015772104
11
0.131964939811
21
-0.0371062484663
0
LWPOLYLINE
8
main_beam_width
70
0
90
10
10
26.338849275
20
-0.209196649804
10
23.4269430945
20
-0.20153933506
10
20.5150369139
20
-0.193882092042
10
17.603130733
20
-0.18622492075
10
14.691224552
20
-0.178567821186
10
11.7793183708
20
-0.170910793351
10
8.86741218943
20
-0.163253837246
10
5.95550600785
20
-0.155596952872
10
3.04359982608
20
-0.147940140228
10
0.131693644123
20
-0.140283399317
0
LWPOLYLINE
8
main_beam_width
70
0
90
10
10
26.3393918859
20
-0.00283489440346
10
23.4274857018
20
0.00482101832771
10
20.5155795178
20
0.0124770027842
10
17.6036733341
20
0.0201330589675
10
14.6917671505
20
0.0277891868786
10
11.7798609671
20
0.0354453865186
10
8.86795478394
20
0.0431016578886
10
5.95604860094
20
0.0507580009891
10
3.04414241812
20
0.0584144158208
10
0.132236235499
20
0.0660709023842
0
LINE
8
main_beam
10
0.165454530809
20
-17.2551296376
11
0.16465450722
21
-17.3551015968
0
LWPOLYLINE
8
main_beam_width
70
0
90
10
10
0.17756696137
20
-17.2552265671
10
0.177478502998
20
-17.266334566
10
0.177390044933
20
-17.2774425649
10
0.177301587174
20
-17.2885505639
10
0.177213129722
20
-17.2996585628
10
0.177124672577
20
-17.3107665618
10
0.177036215739
20
-17.3218745607
10
0.176947759207
20
-17.3329825597
10
0.176859302982
20
-17.3440905586
10
0.176770847063
20
-17.3551985576
0
LWPOLYLINE
8
main_beam_width
70
0
90
10
10
0.153342100247
20
-17.2550327081
10
0.153252775599
20
-17.2661407001
10
0.153163450645
20
-17.2772486921
10
0.153074125384
20
-17.2883566841
10
0.152984799816
20
-17.2994646761
10
0.152895473941
20
-17.3105726681
10
0.15280614776
20
-17.3216806601
10
0.152716821272
20
-17.3327886521
10
0.152627494478
20
-17.3438966441
10
0.152538167376
20
-17.3550046361
0
LINE
8
main_beam
10
0.16465450722
20
-17.3551015968
11
0.163658188604
21
-17.4550717925
0
LWPOLYLINE
8
main_beam_width
70
0
90
10
10
0.176770569949
20
-17.3552223474
10
0.176660500025
20
-17.3663301532
10
0.176550430745
20
-17.377437959
10
0.176440362109
20
-17.3885457649
10
0.176330294117
20
-17.3996535707
10
0.17622022677
20
-17.4107613766
10
0.176110160066
20
-17.4218691824
10
0.176000094007
20
-17.4329769883
10
0.175890028591
20
-17.4440847941
10
0.175779963819
20
-17.4551926
0
LWPOLYLINE
8
main_beam_width
70
0
90
10
10
0.15253844449
20
-17.3549808462
10
0.152427110278
20
-17.3660886395
10
0.152315775421
20
-17.3771964327
10
0.15220443992
20
-17.3883042259
10
0.152093103774
20
-17.3994120191
10
0.151981766985
20
-17.4105198123
10
0.151870429552
20
-17.4216276055
10
0.151759091474
20
-17.4327353986
10
0.151647752753
20
-17.4438431918
10
0.151536413388
20
-17.454950985
0
LINE
8
main_beam
10
0.16465450722
20
-17.3551015968
11
0.163658188603
21
-17.4550717925
0
LWPOLYLINE
8
main_beam_width
70
0
90
10
10
0.176770569949
20
-17.3552223474
10
0.176660500025
20
-17.3663301532
10
0.176550430745
20
-17.377437959
10
0.176440362109
20
-17.3885457649
10
0.176330294117
20
-17.3996535707
10
0.17622022677
20
-17.4107613766
10
0.176110160066
20
-17.4218691824
10
0.176000094007
20
-17.4329769883
10
0.175890028591
20
-17.4440847941
10
0.175779963819
20
-17.4551926
0
LWPOLYLINE
8
main_beam_width
70
0
90
10
10
0.15253844449
20
-17.3549808462
10
0.152427110278
20
-17.3660886395
10
0.152315775421
20
-17.3771964327
10
0.15220443992
20
-17.3883042259
10
0.152093103774
20
-17.3994120191
10
0.151981766985
20
-17.4105198123
10
0.151870429552
20
-17.4216276055
10
0.151759091474
20
-17.4327353986
10
0.151647752753
20
-17.4438431918
10
0.151536413388
20
-17.454950985
0
LINE
8
aux_beam
10
0.131964939811
20
-0.0371062484662
11
0.0933370834509
21
0.0933370834509
0
LWPOLYLINE
8
aux_beam_width
70
0
90
10
10
0.0217664910248
20
-0.0697390384158
10
0.0174745063315
20
-0.0552453350629
10
0.0131825216376
20
-0.0407516317102
10
0.00889053694291
20
-0.0262579283578
10
0.00459855224758
20
-0.0117642250055
10
0.000306567551558
20
0.00272947834661
10
-0.00398541714514
20
0.0172231816985
10
-0.00827740184252
20
0.0317168850502
10
-0.0125693865406
20
0.0462105884016
10
-0.0168613712393
20
0.0607042917529
0
LWPOLYLINE
8
aux_beam_width
70
0
90
10
10
0.242163388597
20
-0.00447345851667
10
0.23787140521
20
0.0100202452231
10
0.233579421824
20
0.0245139489632
10
0.229287438439
20
0.0390076527034
10
0.224995455054
20
0.0535013564438
10
0.22070347167
20
0.0679950601844
10
0.216411488287
20
0.0824887639253
10
0.212119504904
20
0.0969824676663
10
0.207827521522
20
0.111476171408
10
0.203535538141
20
0.125969875149
0
LINE
8
aux_beam
10
0.0933370834509
20
0.0933370834509
11
-0.541675806008
21
30.086615641
0
LWPOLYLINE
8
aux_beam_width
70
0
90
10
10
-0.010224629047
20
0.0911444914619
10
-0.0807817746901
20
3.42373099451
10
-0.15133901323
20
6.75631749559
10
-0.221896344667
20
10.0889039947
10
-0.292453768999
20
13.4214904919
10
-0.363011286226
20
16.754076987
10
-0.433568896344
20
20.0866634803
10
-0.504126599354
20
23.4192499715
10
-0.574684395252
20
26.7518364608
10
-0.645242284037
20
30.0844229481
0
LWPOLYLINE
8
aux_beam_width
70
0
90
10
10
0.196898795949
20
0.09552967544
10
0.126341966157
20
3.42811618518
10
0.0557852292618
20
6.76070269688
10
-0.0147714147367
20
10.0932892106
10
-0.0853279658398
20
13.4258757262
10
-0.155884424049
20
16.7584622438
10
-0.226440789365
20
20.0910487634
10
-0.296997061791
20
23.4236352849
10
-0.367553241328
20
26.7562218084
10
-0.438109327979
20
30.0888083339
0
LINE
8
aux_beam
10
26.3391205804
20
-0.106015772104
11
26.4891205797
21
-0.10496877751
0
LWPOLYLINE
8
aux_beam_width
70
0
90
10
10
26.3384003921
20
-0.00283639640824
10
26.3550670587
20
-0.00272006607977
10
26.3717337253
20
-0.00260373575055
10
26.3884003919
20
-0.00248740542056
10
26.4050670585
20
-0.0023710750898
10
26.4217337251
20
-0.00225474475829
10
26.4384003917
20
-0.00213841442601
10
26.4550670583
20
-0.00202208409296
10
26.4717337249
20
-0.00190575375915
10
26.4884003915
20
-0.00178942342458
0
LWPOLYLINE
8
aux_beam_width
70
0
90
10
10
26.3398407688
20
-0.2091951478
10
26.3565074353
20
-0.209078812663
10
26.3731741019
20
-0.208962477527
10
26.3898407685
20
-0.208846142391
10
26.406507435
20
-0.208729807257
10
26.4231741016
20
-0.208613472123
10
26.4398407681
20
-0.20849713699
10
26.4565074347
20
-0.208380801858
10
26.4731741013
20
-0.208264466727
10
26.4898407678
20
-0.208148131596
0
LINE
8
aux_beam
10
26.3391132708
20
-0.103921731896
11
-3.65756766701
21
0.3423211543
0
LWPOLYLINE
8
aux_beam_width
70
0
90
10
10
26.337578553
20
-0.207086266449
10
23.0046140162
20
-0.157502931963
10
19.6716494779
20
-0.107919691469
10
16.3386849382
20
-0.0583365449704
10
13.0057203972
20
-0.00875349246731
10
9.6727558547
20
0.0408294660382
10
6.33979131083
20
0.0904123305451
10
3.00682676557
20
0.139995101052
10
-0.32613778109
20
0.189577777559
10
-3.65910232915
20
0.239160360065
0
LWPOLYLINE
8
aux_beam_width
70
0
90
10
10
26.3406479886
20
-0.000757197342715
10
23.0076834282
20
0.0488245539927
10
19.6747188692
20
0.0984063993204
10
16.3417543115
20
0.147988338643
10
13.0087897553
20
0.197570371961
10
9.67582520047
20
0.247152499276
10
6.34286064704
20
0.296734720591
10
3.009896095
20
0.346317035905
10
-0.323068455631
20
0.395899445219
10
-3.65603300487
20
0.445481948534
0
LINE
8
aux_beam
10
0.0586109018804
20
23.0761585266
11
-0.387607970767
21
-6.92052276848
0
LWPOLYLINE
8
aux_beam_width
70
0
90
10
10
0.161354440723
20
23.074630154
10
0.111773862608
20
19.7416655761
10
0.0621933796369
20
16.4087009968
10
0.0126129918108
20
13.0757364161
10
-0.0369673008688
20
9.74277183397
10
-0.0865474984006
20
6.40980725043
10
-0.136127600784
20
3.07684266548
10
-0.185707608017
20
-0.256121920891
10
-0.235287520102
20
-3.58908650868
10
-0.284867337036
20
-6.92205109788
0
LWPOLYLINE
8
aux_beam_width
70
0
90
10
10
-0.0441326369623
20
23.0776868992
10
-0.0937118083247
20
19.7447223004
10
-0.143291074831
20
16.411757703
10
-0.192870436482
20
13.078793107
10
-0.24244989328
20
9.74582851247
10
-0.292029445225
20
6.41286391933
10
-0.341609092319
20
3.0798993276
10
-0.391188834563
20
-0.253065262711
10
-0.440768671956
20
-3.58602985161
10
-0.490348604499
20
-6.91899443909
0
LINE
8
aux_beam
10
0.060704805165
20
23.0761658357
11
0.0596578790298
21
23.2261658347
0
LWPOLYLINE
8
aux_beam_width
70
0
90
10
10
-0.0420534847744
20
23.0754486334
10
-0.042169807746
20
23.0921153
10
-0.0422861307183
20
23.1087819666
10
-0.0424024536915
20
23.1254486332
10
-0.0425187766654
20
23.1421152997
10
-0.0426350996401
20
23.1587819663
10
-0.0427514226156
20
23.1754486329
10
-0.0428677455918
20
23.1921152994
10
-0.0429840685688
20
23.208781966
10
-0.0431003915466
20
23.2254486326
0
LWPOLYLINE
8
aux_beam_width
70
0
90
10
10
0.163463095104
20
23.076883038
10
0.163346767824
20
23.0935497045
10
0.163230440544
20
23.1102163711
10
0.163114113265
20
23.1268830376
10
0.162997785986
20
23.1435497041
10
0.162881458709
20
23.1602163707
10
0.162765131432
20
23.1768830372
10
0.162648804156
20
23.1935497037
10
0.162532476881
20
23.2102163703
10
0.162416149606
20
23.2268830368
0
LINE
8
aux_beam
10
0.0596578790298
20
23.2261658347
11
0.0586109018804
21
23.0761585266
0
LWPOLYLINE
8
aux_beam_width
70
0
90
10
10
0.162416149606
20
23.2254486326
10
0.162299816664
20
23.2087811539
10
0.162183483723
20
23.1921136752
10
0.162067150782
20
23.1754461966
10
0.161950817843
20
23.1587787179
10
0.161834484904
20
23.1421112392
10
0.161718151965
20
23.1254437606
10
0.161601819028
20
23.1087762819
10
0.161485486091
20
23.0921088032
10
0.161369153156
20
23.0754413246
0
LWPOLYLINE
8
aux_beam_width
70
0
90
10
10
-0.0431003915466
20
23.2268830368
10
-0.0432167201933
20
23.2102155581
10
-0.0433330488407
20
23.1935480794
10
-0.043449377489
20
23.1768806007
10
-0.043565706138
20
23.1602131221
10
-0.0436820347878
20
23.1435456434
10
-0.0437983634383
20
23.1268781647
10
-0.0439146920897
20
23.110210686
10
-0.0440310207418
20
23.0935432073
10
-0.0441473493946
20
23.0768757286
0
LINE
8
aux_beam
10
26.4891205797
20
-0.10496877751
11
26.3391132708
21
-0.103921731896
0
LWPOLYLINE
8
aux_beam_width
70
0
90
10
10
26.4884003915
20
-0.208148131596
10
26.4717329127
20
-0.208031790797
10
26.455065434
20
-0.207915449999
10
26.4383979553
20
-0.207799109201
10
26.4217304765
20
-0.207682768404
10
26.4050629978
20
-0.207566427608
10
26.388395519
20
-0.207450086813
10
26.3717280403
20
-0.207333746019
10
26.3550605615
20
-0.207217405225
10
26.3383930828
20
-0.207101064432
0
LWPOLYLINE
8
aux_beam_width
70
0
90
10
10
26.4898407678
20
-0.00178942342458
10
26.4731732891
20
-0.00167308742038
10
26.4565058103
20
-0.00155675141542
10
26.4398383315
20
-0.00144041540969
10
26.4231708527
20
-0.0013240794032
10
26.406503374
20
-0.00120774339594
10
26.3898358952
20
-0.00109140738792
10
26.3731684164
20
-0.000975071379141
10
26.3565009376
20
-0.000858735369595
10
26.3398334589
20
-0.000742399359285
0
LINE
8
aux_beam
10
-0.0969408404086
20
-0.0969408404086
11
-20.0897454428
21
-0.63337735121
0
LWPOLYLINE
8
aux_beam_width
70
0
90
10
10
-0.0942083498809
20
-0.198779824333
10
-2.31563108436
20
-0.258383848176
10
-4.53705381768
20
-0.317987915417
10
-6.75847654984
20
-0.377592026057
10
-8.97989928083
20
-0.437196180094
10
-11.2013220107
20
-0.496800377529
10
-13.4227447393
20
-0.556404618362
10
-15.6441674668
20
-0.616008902592
10
-17.8655901931
20
-0.675613230219
10
-20.0870129183
20
-0.735217601243
0
LWPOLYLINE
8
aux_beam_width
70
0
90
10
10
-0.0996733309364
20
0.00489814351584
10
-2.32109606365
20
-0.0547059461525
10
-4.54251879754
20
-0.114309992423
10
-6.76394153258
20
-0.173913995295
10
-8.98536426879
20
-0.233517954769
10
-11.2067870062
20
-0.293121870845
10
-13.4282097447
20
-0.352725743523
10
-15.6496324844
20
-0.412329572805
10
-17.8710552253
20
-0.471933358689
10
-20.0924779673
20
-0.531537101176
0
LINE
8
aux_beam
10
0.0374789572554
20
-0.132864634051
11
-0.0969408404086
21
-0.0969408404086
0
LWPOLYLINE
8
aux_beam_width
70
0
90
10
10
0.00780559359282
20
-0.243896547308
10
-0.00712993930466
20
-0.239905014021
10
-0.0220654722023
20
-0.235913480736
10
-0.0370010051002
20
-0.23192194745
10
-0.0519365379982
20
-0.227930414166
10
-0.0668720708965
20
-0.223938880882
10
-0.0818076037949
20
-0.219947347599
10
-0.0967431366935
20
-0.215955814317
10
-0.111678669592
20
-0.211964281035
10
-0.126614202491
20
-0.207972747754
0
LWPOLYLINE
8
aux_beam_width
70
0
90
10
10
0.0671523209181
20
-0.0218327207933
10
0.052216787668
20
-0.0178411888261
10
0.0372812544181
20
-0.0138496568583
10
0.0223457211683
20
-0.00985812488965
10
0.00741018791882
20
-0.00586659292033
10
-0.00752534533051
20
-0.00187506095028
10
-0.0224608785796
20
0.00211647102048
10
-0.0373964118286
20
0.00610800299196
10
-0.0523319450774
20
0.0100995349642
10
-0.0672674783259
20
0.0140910669371
0
LINE
8
green_beam
10
-2.70308265989
20
0.257437928486
11
-2.6007028083
21
0.259597015844
0
LWPOLYLINE
8
green_beam_width
70
0
90
14
10
-2.70321115065
20
0.263530717797
10
-2.69533525325
20
0.263671944909
10
-2.68745935586
20
0.263813172322
10
-2.67958345847
20
0.263954400041
10
-2.67170756109
20
0.26409562807
10
-2.66383166372
20
0.264236856413
10
-2.65595576636
20
0.264378085073
10
-2.648079869
20
0.264519314054
10
-2.64020397164
20
0.264660543361
10
-2.6323280743
20
0.264801772998
10
-2.62445217696
20
0.264943002968
10
-2.61657627963
20
0.265084233277
10
-2.60870038231
20
0.265225463928
10
-2.60082448499
20
0.265366694926
0
LWPOLYLINE
8
green_beam_width
70
0
90
14
10
-2.70295416914
20
0.251345139174
10
-2.69507932014
20
0.251536079349
10
-2.68720447113
20
0.251727019221
10
-2.67932962212
20
0.251917958788
10
-2.6714547731
20
0.252108898045
10
-2.66357992407
20
0.252299836988
10
-2.65570507504
20
0.252490775614
10
-2.647830226
20
0.252681713918
10
-2.63995537695
20
0.252872651897
10
-2.6320805279
20
0.253063589547
10
-2.62420567884
20
0.253254526862
10
-2.61633082977
20
0.253445463839
10
-2.6084559807
20
0.253636400474
10
-2.60058113162
20
0.253827336762
0
LINE
8
green_beam
10
-17.4598286061
20
0.21166478603
11
-17.5597718944
21
0.211368348646
0
LWPOLYLINE
8
green_beam_width
70
0
90
10
10
-17.4598075988
20
0.204582199917
10
-17.4709124055
20
0.204548214108
10
-17.4820172122
20
0.204514227922
10
-17.4931220189
20
0.204480241358
10
-17.5042268256
20
0.204446254417
10
-17.5153316323
20
0.204412267099
10
-17.5264364389
20
0.204378279404
10
-17.5375412456
20
0.204344291331
10
-17.5486460523
20
0.204310302882
10
-17.559750859
20
0.204276314057
0
LWPOLYLINE
8
green_beam_width
70
0
90
10
10
-17.4598496135
20
0.218747372143
10
-17.4709544264
20
0.218715482977
10
-17.4820592393
20
0.218683594189
10
-17.4931640522
20
0.218651705779
10
-17.5042688651
20
0.218619817746
10
-17.5153736781
20
0.21858793009
10
-17.526478491
20
0.218556042811
10
-17.5375833039
20
0.218524155909
10
-17.5486881168
20
0.218492269384
10
-17.5597929298
20
0.218460383236
0
LINE
8
green_beam
10
-2.70308265989
20
0.257437928486
11
-17.4598286061
21
0.21166478603
0
LWPOLYLINE
8
green_beam_width
70
0
90
10
10
-2.70306375718
20
0.251343905611
10
-4.34270216979
20
0.246249663616
10
-5.98234049724
20
0.241127968854
10
-7.62197874102
20
0.235979296287
10
-9.26161690362
20
0.230804453295
10
-10.9012549884
20
0.225604530089
10
-12.5408929995
20
0.220380838004
10
-14.1805309414
20
0.215134843089
10
-15.8201688189
20
0.209868101689
10
-17.4598066371
20
0.204582203008
0
LWPOLYLINE
8
green_beam_width
70
0
90
10
10
-2.70310156261
20
0.263531951361
10
-4.34274002694
20
0.258454383921
10
-5.98237857643
20
0.253404269249
10
-7.62201720959
20
0.24838113238
10
-9.26165592394
20
0.243384165938
10
-10.9012947161
20
0.238412279709
10
-12.5409335819
20
0.23346416236
10
-14.180572517
20
0.22853834784
10
-15.8202115164
20
0.223633279806
10
-17.4598505752
20
0.218747369051
0
LINE
8
green_beam
10
0.133549431321
20
-0.0355004192743
11
0.0020989191173
21
0.0020989191173
0
LWPOLYLINE
8
green_beam_width
70
0
90
10
10
0.11773166882
20
-0.0908006737916
10
0.103126055199
20
-0.0866229735579
10
0.0885204415786
20
-0.0824452733255
10
0.0739148279574
20
-0.0782675730944
10
0.0593092143359
20
-0.0740898728647
10
0.0447036007139
20
-0.0699121726363
10
0.0300979870916
20
-0.0657344724093
10
0.0154923734689
20
-0.0615567721837
10
0.000886759845831
20
-0.0573790719594
10
-0.0137188537776
20
-0.0532013717365
0
LWPOLYLINE
8
green_beam_width
70
0
90
10
10
0.149367193823
20
0.019799835243
10
0.134761582509
20
0.0239775435407
10
0.120155971195
20
0.0281552518398
10
0.105550359882
20
0.0323329601402
10
0.0909447485697
20
0.0365106684419
10
0.0763391372575
20
0.0406883767451
10
0.0617335259456
20
0.0448660850495
10
0.0471279146341
20
0.0490437933553
10
0.032522303323
20
0.0532215016625
10
0.0179166920122
20
0.057399209971
0
LINE
8
green_beam
10
0.00209891911729
20
0.0020989191173
11
0.0399785191017
21
-0.130331411655
0
LWPOLYLINE
8
green_beam_width
70
0
90
10
10
0.057399209971
20
0.0179166920122
10
0.061608058488
20
0.00320221198068
10
0.0658169070064
20
-0.0115122680505
10
0.0700257555262
20
-0.0262267480813
10
0.0742346040473
20
-0.0409412281117
10
0.0784434525698
20
-0.0556557081416
10
0.0826523010937
20
-0.0703701881712
10
0.0868611496189
20
-0.0850846682004
10
0.0910699981455
20
-0.0997991482293
10
0.0952788466735
20
-0.114513628258
0
LWPOLYLINE
8
green_beam_width
70
0
90
10
10
-0.0532013717365
20
-0.0137188537776
10
-0.048992531368
20
-0.02843333614
10
-0.044783691001
20
-0.0431478185027
10
-0.0405748506353
20
-0.0578623008658
10
-0.036366010271
20
-0.0725767832293
10
-0.0321571699081
20
-0.0872912655932
10
-0.0279483295465
20
-0.102005747958
10
-0.0237394891863
20
-0.116720230322
10
-0.0195306488275
20
-0.131434712687
10
-0.0153218084701
20
-0.146149195053
0
LINE
8
green_beam
10
26.6891205797
20
-0.106015037748
11
26.4891205797
21
-0.106015552149
0
LWPOLYLINE
8
green_beam_width
70
0
90
10
10
26.6891207123
20
-0.157605993477
10
26.6668984901
20
-0.157606050562
10
26.6446762679
20
-0.157606107655
10
26.6224540457
20
-0.157606164756
10
26.6002318235
20
-0.157606221866
10
26.5780096012
20
-0.157606278984
10
26.555787379
20
-0.15760633611
10
26.5335651568
20
-0.157606393245
10
26.5113429346
20
-0.157606450388
10
26.4891207124
20
-0.15760650754
0
LWPOLYLINE
8
green_beam_width
70
0
90
10
10
26.689120447
20
-0.0544240820196
10
26.6668982247
20
-0.0544241392463
10
26.6446760025
20
-0.0544241964646
10
26.6224537803
20
-0.0544242536745
10
26.6002315581
20
-0.0544243108761
10
26.5780093359
20
-0.0544243680693
10
26.5557871136
20
-0.0544244252542
10
26.5335648914
20
-0.0544244824308
10
26.5113426692
20
-0.0544245395989
10
26.489120447
20
-0.0544245967588
0
LINE
8
green_beam
10
-0.0804762387754
20
-14.8947752515
11
0.278750157165
21
-2.8375403354
0
LWPOLYLINE
8
green_beam_width
70
0
90
100
10
-0.131625433204
20
-14.8932513415
10
-0.127541397329
20
-14.7714746603
10
-0.123457361718
20
-14.6496979791
10
-0.119373326379
20
-14.5279212979
10
-0.115289291319
20
-14.4061446167
10
-0.111205256547
20
-14.2843679355
10
-0.107121222069
20
-14.1625912543
10
-0.103037187894
20
-14.0408145731
10
-0.0989531540322
20
-13.9190378919
10
-0.0948691204913
20
-13.7972612106
10
-0.090785087281
20
-13.6754845294
10
-0.0867010544112
20
-13.5537078481
10
-0.0826170218921
20
-13.4319311668
10
-0.0785329897342
20
-13.3101544855
10
-0.0744489579486
20
-13.1883778042
10
-0.0703649265468
20
-13.0666011229
10
-0.0662808955406
20
-12.9448244416
10
-0.0621968649426
20
-12.8230477603
10
-0.0581128347658
20
-12.7012710789
10
-0.0540288050237
20
-12.5794943976
10
-0.0499447757303
20
-12.4577177162
10
-0.0458607469006
20
-12.3359410348
10
-0.0417767185498
20
-12.2141643534
10
-0.0376926906941
20
-12.092387672
10
-0.0336086633502
20
-11.9706109906
10
-0.0295246365358
20
-11.8488343091
10
-0.0254406102693
20
-11.7270576277
10
-0.02135658457
20
-11.6052809462
10
-0.017272559458
20
-11.4835042647
10
-0.0131885349544
20
-11.3617275832
10
-0.00910451108156
20
-11.2399509017
10
-0.00502048786263
20
-11.1181742201
10
-0.000936465322062
20
-10.9963975385
10
0.00314755651447
20
-10.8746208569
10
0.00723157761999
20
-10.7528441753
10
0.0113155979661
20
-10.6310674937
10
0.015399617523
20
-10.509290812
10
0.0194836362593
20
-10.3875141303
10
0.0235676541417
20
-10.2657374486
10
0.0276516711353
20
-10.1439607669
10
0.0317356872033
20
-10.0221840851
10
0.0358197023067
20
-9.90040740334
10
0.0399037164044
20
-9.77863072152
10
0.0439877294528
20
-9.65685403967
10
0.0480717414058
20
-9.53507735778
10
0.0521557522146
20
-9.41330067586
10
0.0562397618273
20
-9.2915239939
10
0.0603237701892
20
-9.16974731191
10
0.0644077772418
20
-9.04797062987
10
0.068491782923
20
-8.9261939478
10
0.0725757871669
20
-8.80441726568
10
0.076659789903
20
-8.68264058352
10
0.0807437910564
20
-8.56086390131
10
0.084827790547
20
-8.43908721905
10
0.0889117882893
20
-8.31731053674
10
0.0929957841916
20
-8.19553385438
10
0.0970797781561
20
-8.07375717196
10
0.101163770077
20
-7.95198048947
10
0.105247759843
20
-7.83020380692
10
0.109331747331
20
-7.70842712431
10
0.113415732411
20
-7.58665044162
10
0.117499714943
20
-7.46487375886
10
0.121583694774
20
-7.34309707601
10
0.12566767174
20
-7.22132039308
10
0.129751645663
20
-7.09954371006
10
0.13383561635
20
-6.97776702695
10
0.137919583591
20
-6.85599034373
10
0.142003547159
20
-6.7342136604
10
0.146087506804
20
-6.61243697695
10
0.150171462255
20
-6.49066029338
10
0.154255413214
20
-6.36888360968
10
0.158339359356
20
-6.24710692583
10
0.162423300321
20
-6.12533024183
10
0.166507235715
20
-6.00355355766
10
0.170591165101
20
-5.88177687331
10
0.174675087995
20
-5.76000018877
10
0.178759003863
20
-5.63822350402
10
0.182842912107
20
-5.51644681905
10
0.18692681206
20
-5.39467013382
10
0.191010702975
20
-5.27289344833
10
0.195094584013
20
-5.15111676254
10
0.199178454229
20
-5.02934007643
10
0.203262312551
20
-4.90756338997
10
0.207346157762
20
-4.78578670311
10
0.211429988472
20
-4.66401001583
10
0.21551380309
20
-4.54223332806
10
0.21959759978
20
-4.42045663976
10
0.223681376419
20
-4.29867995086
10
0.227765130533
20
-4.17690326129
10
0.231848859225
20
-4.05512657097
10
0.235932559077
20
-3.93334987978
10
0.240016226033
20
-3.81157318762
10
0.244099855236
20
-3.68979649433
10
0.248183440827
20
-3.56801979974
10
0.252266975668
20
-3.44624310363
10
0.256350450974
20
-3.32446640576
10
0.26043385581
20
-3.20268970578
10
0.26451717639
20
-3.0809130033
10
0.268600395089
20
-2.95913629778
10
0.272683488997
20
-2.83735958854
0
LWPOLYLINE
8
green_beam_width
70
0
90
100
10
-0.0293270443471
20
-14.8962991615
10
-0.0261539813141
20
-14.7744953393
10
-0.0229809180168
20
-14.6526915171
10
-0.0198078544479
20
-14.5308876949
10
-0.0166347905999
20
-14.4090838728
10
-0.0134617264649
20
-14.2872800506
10
-0.0102886620348
20
-14.1654762285
10
-0.00711559730128
20
-14.0436724064
10
-0.00394253225557
20
-13.9218685843
10
-0.000769466888607
20
-13.8000647621
10
0.00240359880903
20
-13.67826094
10
0.00557666484714
20
-13.5564571179
10
0.0087497312359
20
-13.4346532959
10
0.0119227979859
20
-13.3128494738
10
0.0150958651082
20
-13.1910456517
10
0.0182689326142
20
-13.0692418297
10
0.021442000516
20
-12.9474380077
10
0.0246150688259
20
-12.8256341856
10
0.0277881375569
20
-12.7038303636
10
0.0309612067226
20
-12.5820265416
10
0.0341342763372
20
-12.4602227196
10
0.0373073464153
20
-12.3384188977
10
0.0404804169724
20
-12.2166150757
10
0.0436534880246
20
-12.0948112538
10
0.0468265595886
20
-11.9730074318
10
0.0499996316821
20
-11.8512036099
10
0.0531727043235
20
-11.729399788
10
0.056345777532
20
-11.6075959662
10
0.0595188513279
20
-11.4857921443
10
0.0626919257323
20
-11.3639883225
10
0.0658650007673
20
-11.2421845006
10
0.0690380764562
20
-11.1203806788
10
0.0722111528235
20
-10.998576857
10
0.0753842298949
20
-10.8767730353
10
0.0785573076973
20
-10.7549692135
10
0.081730386259
20
-10.6331653918
10
0.08490346561
20
-10.5113615701
10
0.0880765457816
20
-10.3895577485
10
0.0912496268071
20
-10.2677539268
10
0.0944227087213
20
-10.1459501052
10
0.0975957915612
20
-10.0241462836
10
0.100768875366
20
-9.90234246205
10
0.103941960176
20
-9.78053864051
10
0.107115046035
20
-9.65873481901
10
0.11028813299
20
-9.53693099755
10
0.113461221089
20
-9.41512717611
10
0.116634310385
20
-9.29332335471
10
0.119807400931
20
-9.17151953335
10
0.122980492786
20
-9.04971571203
10
0.126153586012
20
-8.92791189075
10
0.129326680677
20
-8.80610806951
10
0.132499776848
20
-8.68430424832
10
0.135672874603
20
-8.56250042717
10
0.13884597402
20
-8.44069660607
10
0.142019075186
20
-8.31889278503
10
0.145192178191
20
-8.19708896404
10
0.148365283135
20
-8.07528514311
10
0.151538390121
20
-7.95348132224
10
0.154711499264
20
-7.83167750143
10
0.157884610683
20
-7.70987368069
10
0.161057724511
20
-7.58806986002
10
0.164230840887
20
-7.46626603943
10
0.167403959964
20
-7.34446221892
10
0.170577081906
20
-7.22265839849
10
0.173750206891
20
-7.10085457816
10
0.176923335112
20
-6.97905075792
10
0.180096466778
20
-6.85724693778
10
0.183269602119
20
-6.73544311776
10
0.186442741381
20
-6.61363929785
10
0.189615884838
20
-6.49183547806
10
0.192789032787
20
-6.37003165841
10
0.195962185553
20
-6.24822783891
10
0.199135343496
20
-6.12642401955
10
0.20230850701
20
-6.00462020037
10
0.205481676532
20
-5.88281638136
10
0.208654852545
20
-5.76101256254
10
0.211828035585
20
-5.63920874394
10
0.215001226249
20
-5.51740492556
10
0.218174425205
20
-5.39560110743
10
0.221347633197
20
-5.27379728957
10
0.224520851067
20
-5.151993472
10
0.227694079759
20
-5.03018965475
10
0.230867320345
20
-4.90838583786
10
0.234040574042
20
-4.78658202136
10
0.237213842239
20
-4.66477820529
10
0.24038712653
20
-4.54297438971
10
0.243560428747
20
-4.42117057465
10
0.246733751016
20
-4.29936676019
10
0.24990709581
20
-4.17756294641
10
0.253080466026
20
-4.05575913338
10
0.256253865082
20
-3.93395532121
10
0.259427297034
20
-3.81215151002
10
0.262600766738
20
-3.69034769996
10
0.265774280055
20
-3.56854389119
10
0.268947844122
20
-3.44674008394
10
0.272121467724
20
-3.32493627846
10
0.275295161796
20
-3.20313247508
10
0.278468940124
20
-3.08132867421
10
0.281642820333
20
-2.95952487637
10
0.284816825332
20
-2.83772108226
0
LINE
8
green_beam
10
26.3391205804
20
-0.106015769919
11
0.133549431321
21
-0.0355004192743
0
LWPOLYLINE
8
green_beam_width
70
0
90
10
10
26.3389817581
20
-0.157606202783
10
23.4272516303
20
-0.149771239702
10
20.515521502
20
-0.141936420036
10
17.6037913733
20
-0.134101743785
10
14.6920612443
20
-0.126267210945
10
11.7803311149
20
-0.118432821512
10
8.86860098505
20
-0.110598575481
10
5.95687085485
20
-0.102764472844
10
3.04514072427
20
-0.0949305135953
10
0.133410593299
20
-0.0870966977243
0
LWPOLYLINE
8
green_beam_width
70
0
90
10
10
26.3392594027
20
-0.0544253370543
10
23.4275292752
20
-0.0465902222149
10
20.5157991482
20
-0.0387549639594
10
17.6040690215
20
-0.0309195622896
10
14.6923388951
20
-0.0230840172086
10
11.7806087692
20
-0.0152483287205
10
8.86887864366
20
-0.00741249683085
10
5.9571485185
20
0.000423478453802
10
3.04541839373
20
0.00825959712564
10
0.133688269343
20
0.0160958591757
0
LINE
8
green_beam
10
0.0399785191017
20
-0.130331411655
11
-0.0804762387754
21
-14.8947752515
0
LWPOLYLINE
8
green_beam_width
70
0
90
10
10
0.0911401552218
20
-0.130748810547
10
0.0777570566599
20
-1.77124257675
10
0.0643740047923
20
-3.41173634334
10
0.0509909996166
20
-5.05223011031
10
0.0376080411305
20
-6.69272387766
10
0.0242251293316
20
-8.3332176454
10
0.0108422642173
20
-9.97371141351
10
-0.00254055421512
20
-11.614205182
10
-0.0159233259686
20
-13.2546989509
10
-0.0293060510461
20
-14.8951927201
0
LWPOLYLINE
8
green_beam_width
70
0
90
10
10
-0.0111831170184
20
-0.129914012764
10
-0.0245677424292
20
-1.77040776652
10
-0.0379524145342
20
-3.41090151989
10
-0.0513371333312
20
-5.05139527288
10
-0.0647218988179
20
-6.69188902548
10
-0.0781067109917
20
-8.33238277771
10
-0.0914915698501
20
-9.97287652956
10
-0.10487647539
20
-11.613370281
10
-0.11826142761
20
-13.2538640321
10
-0.131646426505
20
-14.8943577828
0
LINE
8
green_beam
10
0.142523103904
20
-17.2549452933
11
0.141620888052
21
-17.3550177774
0
LWPOLYLINE
8
green_beam_width
70
0
90
10
10
0.149561815185
20
-17.2550087516
10
0.149462616139
20
-17.266127926
10
0.149363417479
20
-17.2772471003
10
0.149264219204
20
-17.2883662747
10
0.149165021315
20
-17.299485449
10
0.149065823811
20
-17.3106046234
10
0.148966626693
20
-17.3217237978
10
0.148867429959
20
-17.3328429721
10
0.148768233611
20
-17.3439621465
10
0.148669037647
20
-17.3550813209
0
LWPOLYLINE
8
green_beam_width
70
0
90
10
10
0.135484392623
20
-17.2548818349
10
0.135383099257
20
-17.2660009904
10
0.135281805506
20
-17.2771201458
10
0.135180511369
20
-17.2882393013
10
0.135079216846
20
-17.2993584567
10
0.134977921938
20
-17.3104776122
10
0.134876626645
20
-17.3215967676
10
0.134775330967
20
-17.3327159231
10
0.134674034905
20
-17.3438350785
10
0.134572738457
20
-17.354954234
0
LINE
8
green_beam
10
26.4891205797
20
-0.106015552149
11
26.3391205804
21
-0.106015769919
0
LWPOLYLINE
8
green_beam_width
70
0
90
10
10
26.4891206546
20
-0.15760650754
10
26.472453988
20
-0.157606531737
10
26.4557873214
20
-0.157606555936
10
26.4391206548
20
-0.157606580136
10
26.4224539882
20
-0.157606604338
10
26.4057873217
20
-0.157606628542
10
26.3891206551
20
-0.157606652746
10
26.3724539885
20
-0.157606676953
10
26.3557873219
20
-0.157606701161
10
26.3391206553
20
-0.15760672537
0
LWPOLYLINE
8
green_beam_width
70
0
90
10
10
26.4891205048
20
-0.0544245967586
10
26.4724538382
20
-0.0544246209545
10
26.4557871716
20
-0.0544246451488
10
26.439120505
20
-0.0544246693417
10
26.4224538384
20
-0.0544246935331
10
26.4057871719
20
-0.054424717723
10
26.3891205053
20
-0.0544247419114
10
26.3724538387
20
-0.0544247660983
10
26.3557871721
20
-0.0544247902837
10
26.3391205055
20
-0.0544248144676
0
LINE
8
green_beam
10
0.278750157165
20
-2.8375403354
11
0.142523103904
21
-17.2549452933
0
LWPOLYLINE
8
green_beam_width
70
0
90
10
10
0.284819246353
20
-2.83759768096
10
0.269692533877
20
-4.43953165612
10
0.254592340977
20
-6.04146588187
10
0.239518202201
20
-7.6434003538
10
0.224469341195
20
-9.24533506457
10
0.209444716995
20
-10.8472700043
10
0.194443081266
20
-12.4492051613
10
0.179463039788
20
-14.0511405224
10
0.164503112176
20
-15.6530760735
10
0.149561785286
20
-17.2550118003
0
LWPOLYLINE
8
green_beam_width
70
0
90
10
10
0.272681067977
20
-2.83748298984
10
0.25753510195
20
-4.43941678309
10
0.242362616347
20
-6.04135032575
10
0.227164076621
20
-7.64328362224
10
0.211940259125
20
-9.24521667988
10
0.196692204822
20
-10.8471495085
10
0.181421162049
20
-12.4490821199
10
0.166128525025
20
-14.0510145273
10
0.150815774134
20
-15.6529467446
10
0.135484422522
20
-17.2548787862
0
LINE
8
green_beam
10
-2.6007028083
20
0.259597015844
11
-2.49832613518
21
0.261901895237
0
LWPOLYLINE
8
green_beam_width
70
0
90
14
10
-2.60083270084
20
0.26536650025
10
-2.59295675488
20
0.265507498069
10
-2.58508080893
20
0.265648496651
10
-2.577204863
20
0.265789496013
10
-2.56932891709
20
0.265930496169
10
-2.5614529712
20
0.266071497134
10
-2.55357702532
20
0.266212498924
10
-2.54570107947
20
0.266353501556
10
-2.53782513363
20
0.266494505046
10
-2.52994918782
20
0.266635509411
10
-2.52207324202
20
0.26677651467
10
-2.51419729625
20
0.26691752084
10
-2.50632135049
20
0.26705852794
10
-2.49844540476
20
0.267199535989
0
LWPOLYLINE
8
green_beam_width
70
0
90
14
10
-2.60057291577
20
0.253827531438
10
-2.59269860433
20
0.254041130449
10
-2.58482429287
20
0.254254728696
10
-2.57694998139
20
0.254468326164
10
-2.5690756699
20
0.254681922838
10
-2.56120135839
20
0.254895518703
10
-2.55332704686
20
0.255109113743
10
-2.54545273531
20
0.255322707941
10
-2.53757842374
20
0.25553630128
10
-2.52970411215
20
0.255749893744
10
-2.52182980054
20
0.255963485315
10
-2.51395548892
20
0.256177075975
10
-2.50608117727
20
0.256390665705
10
-2.49820686559
20
0.256604254486
0
LINE
8
green_beam
10
0.00209891911729
20
0.0020989191173
11
-14.7623491717
21
-0.0375058029366
0
LWPOLYLINE
8
green_beam_width
70
0
90
10
10
0.00223675123639
20
-0.0492842256721
10
-1.63825747905
20
-0.0536855080768
10
-3.27875170921
20
-0.0580868365621
10
-4.91924593925
20
-0.0624882111259
10
-6.55974016916
20
-0.0668896317659
10
-8.20023439896
20
-0.0712910984797
10
-9.84072862862
20
-0.0756926112647
10
-11.4812228582
20
-0.0800941701183
10
-13.1217170876
20
-0.0844957750377
10
-14.7622113169
20
-0.08889742602
0
LWPOLYLINE
8
green_beam_width
70
0
90
10
10
0.0019610869982
20
0.0534820639067
10
-1.63853314735
20
0.0490822969661
10
-3.27902738183
20
0.0446825761061
10
-4.91952161642
20
0.0402829013246
10
-6.56001585115
20
0.0358832726193
10
-8.20051008599
20
0.0314836899878
10
-9.84100432096
20
0.0270841534275
10
-11.4814985561
20
0.0226846629358
10
-13.1219927913
20
0.0182852185099
10
-14.7624870266
20
0.0138858201469
0
LINE
8
green_beam
10
0.141620888052
20
-17.3550177774
11
0.140470800945
21
-17.4550877199
0
LWPOLYLINE
8
green_beam_width
70
0
90
10
10
0.148668801232
20
-17.3550987779
10
0.148542548528
20
-17.3662176781
10
0.148416296644
20
-17.3773365782
10
0.14829004558
20
-17.3884554784
10
0.148163795334
20
-17.3995743785
10
0.148037545907
20
-17.4106932787
10
0.147911297297
20
-17.4218121789
10
0.147785049504
20
-17.4329310791
10
0.147658802527
20
-17.4440499793
10
0.147532556367
20
-17.4551688795
0
LWPOLYLINE
8
green_beam_width
70
0
90
10
10
0.134572974872
20
-17.3549367769
10
0.134443652663
20
-17.3660556418
10
0.134314329634
20
-17.3771745067
10
0.134185005786
20
-17.3882933715
10
0.134055681119
20
-17.3994122363
10
0.133926355634
20
-17.4105311011
10
0.133797029332
20
-17.4216499659
10
0.133667702212
20
-17.4327688307
10
0.133538374276
20
-17.4438876955
10
0.133409045524
20
-17.4550065603
0
LINE
8
green_beam
10
-14.7623491717
20
-0.0375058029366
11
-2.70308265989
21
0.257437928486
0
LWPOLYLINE
8
green_beam_width
70
0
90
100
10
-14.7636057291
20
0.0138706409917
10
-14.6417837662
20
0.0163923482998
10
-14.5199618034
20
0.0189140558688
10
-14.3981398405
20
0.0214357637059
10
-14.2763178777
20
0.0239574718185
10
-14.1544959149
20
0.0264791802144
10
-14.0326739521
20
0.0290008889016
10
-13.9108519892
20
0.0315225978883
10
-13.7890300264
20
0.0340443071831
10
-13.6672080636
20
0.0365660167951
10
-13.5453861008
20
0.0390877267335
10
-13.423564138
20
0.0416094370079
10
-13.3017421753
20
0.0441311476285
10
-13.1799202125
20
0.0466528586056
10
-13.0580982497
20
0.0491745699502
10
-12.936276287
20
0.0516962816736
10
-12.8144543242
20
0.0542179937876
10
-12.6926323615
20
0.0567397063046
10
-12.5708103988
20
0.0592614192372
10
-12.4489884361
20
0.0617831325989
10
-12.3271664734
20
0.0643048464036
10
-12.2053445107
20
0.066826560666
10
-12.083522548
20
0.0693482754011
10
-11.9617005853
20
0.0718699906249
10
-11.8398786227
20
0.0743917063539
10
-11.7180566601
20
0.0769134226056
10
-11.5962346974
20
0.0794351393982
10
-11.4744127348
20
0.0819568567505
10
-11.3525907722
20
0.0844785746827
10
-11.2307688096
20
0.0870002932154
10
-11.1089468471
20
0.0895220123707
10
-10.9871248845
20
0.0920437321715
10
-10.865302922
20
0.094565452642
10
-10.7434809595
20
0.0970871738074
10
-10.6216589969
20
0.0996088956944
10
-10.4998370345
20
0.102130618331
10
-10.378015072
20
0.104652341747
10
-10.2561931096
20
0.107174065972
10
-10.1343711471
20
0.109695791041
10
-10.0125491847
20
0.112217516987
10
-9.89072722235
20
0.114739243847
10
-9.76890525999
20
0.117260971658
10
-9.64708329766
20
0.119782700463
10
-9.52526133535
20
0.122304430303
10
-9.40343937307
20
0.124826161225
10
-9.28161741081
20
0.127347893276
10
-9.15979544859
20
0.129869626508
10
-9.03797348639
20
0.132391360975
10
-8.91615152423
20
0.134913096734
10
-8.7943295621
20
0.137434833846
10
-8.67250760001
20
0.139956572378
10
-8.55068563795
20
0.142478312398
10
-8.42886367593
20
0.145000053981
10
-8.30704171395
20
0.147521797204
10
-8.18521975201
20
0.150043542154
10
-8.06339779011
20
0.15256528892
10
-7.94157582827
20
0.155087037599
10
-7.81975386647
20
0.157608788295
10
-7.69793190472
20
0.160130541119
10
-7.57610994303
20
0.162652296191
10
-7.4542879814
20
0.165174053641
10
-7.33246601983
20
0.167695813606
10
-7.21064405832
20
0.170217576237
10
-7.08882209689
20
0.172739341697
10
-6.96700013552
20
0.17526111016
10
-6.84517817424
20
0.177782881818
10
-6.72335621304
20
0.180304656877
10
-6.60153425192
20
0.182826435563
10
-6.47971229091
20
0.185348218122
10
-6.35789032999
20
0.187870004821
10
-6.23606836918
20
0.190391795954
10
-6.11424640849
20
0.192913591843
10
-5.99242444792
20
0.195435392843
10
-5.87060248749
20
0.197957199343
10
-5.7487805272
20
0.200479011774
10
-5.62695856707
20
0.203000830613
10
-5.50513660711
20
0.20552265639
10
-5.38331464733
20
0.208044489693
10
-5.26149268775
20
0.210566331182
10
-5.13967072839
20
0.213088181593
10
-5.01784876927
20
0.215610041756
10
-4.89602681042
20
0.218131912603
10
-4.77420485184
20
0.220653795193
10
-4.65238289359
20
0.223175690728
10
-4.53056093568
20
0.225697600579
10
-4.40873897817
20
0.22821952632
10
-4.28691702108
20
0.23074146976
10
-4.16509506448
20
0.233263432998
10
-4.04327310843
20
0.235785418476
10
-3.92145115299
20
0.238307429057
10
-3.79962919824
20
0.240829468113
10
-3.67780724429
20
0.243351539652
10
-3.55598529125
20
0.245873648469
10
-3.43416333927
20
0.248395800352
10
-3.31234138851
20
0.25091800235
10
-3.19051943919
20
0.253440263141
10
-3.06869749157
20
0.255962593525
10
-2.94687554598
20
0.258485007118
10
-2.82505360286
20
0.261007521335
10
-2.70323166275
20
0.263530158805
0
LWPOLYLINE
8
green_beam_width
70
0
90
100
10
-14.7610926144
20
-0.0888822468649
10
-14.6392930316
20
-0.0854454949523
10
-14.5174934487
20
-0.0820087433006
10
-14.3956938659
20
-0.0785719919171
10
-14.273894283
20
-0.0751352408091
10
-14.1520947001
20
-0.0716984899843
10
-14.0302951173
20
-0.0682617394508
10
-13.9084955344
20
-0.0648249892169
10
-13.7866959515
20
-0.061388239291
10
-13.6648963686
20
-0.0579514896823
10
-13.5430967857
20
-0.0545147404001
10
-13.4212972028
20
-0.0510779914538
10
-13.2994976199
20
-0.0476412428537
10
-13.177698037
20
-0.0442044946102
10
-13.055898454
20
-0.0407677467342
10
-12.9340988711
20
-0.037330999237
10
-12.8122992881
20
-0.0338942521303
10
-12.6904997052
20
-0.0304575054266
10
-12.5687001222
20
-0.0270207591385
10
-12.4469005392
20
-0.0235840132796
10
-12.3251009562
20
-0.0201472678637
10
-12.2033013732
20
-0.0167105229053
10
-12.0815017902
20
-0.0132737784198
10
-11.9597022072
20
-0.00983703442294
10
-11.8379026241
20
-0.00640029093135
10
-11.7161030411
20
-0.00296354796242
10
-11.594303458
20
0.00047319446571
10
-11.4725038749
20
0.003909936334
10
-11.3507042918
20
0.00734667762253
10
-11.2289047087
20
0.0107834183104
10
-11.1071051256
20
0.0142201583758
10
-10.9853055425
20
0.0176568977956
10
-10.8635059593
20
0.0210936365458
10
-10.7417063761
20
0.0245303746011
10
-10.6199067929
20
0.0279671119348
10
-10.4981072097
20
0.0314038485188
10
-10.3763076265
20
0.0348405843238
10
-10.2545080433
20
0.0382773193187
10
-10.13270846
20
0.0417140534708
10
-10.0109088767
20
0.0451507867455
10
-9.88910929339
20
0.0485875191065
10
-9.76730971005
20
0.0520242505154
10
-9.64551012669
20
0.0554609809314
10
-9.5237105433
20
0.0588977103117
10
-9.40191095989
20
0.0623344386106
10
-9.28011137645
20
0.0657711657801
10
-9.15831179298
20
0.069207891769
10
-9.03651220948
20
0.072644616523
10
-8.91471262595
20
0.0760813399846
10
-8.79291304239
20
0.0795180620925
10
-8.67111345879
20
0.0829547827815
10
-8.54931387515
20
0.0863915019821
10
-8.42751429148
20
0.0898282196204
10
-8.30571470776
20
0.0932649356172
10
-8.18391512401
20
0.0967016498881
10
-8.06211554021
20
0.100138362343
10
-7.94031595636
20
0.103575072884
10
-7.81851637246
20
0.107011781409
10
-7.69671678852
20
0.110448487806
10
-7.57491720451
20
0.113885191954
10
-7.45311762045
20
0.117321893726
10
-7.33131803633
20
0.120758592981
10
-7.20951845214
20
0.12419528957
10
-7.08771886788
20
0.127631983332
10
-6.96591928355
20
0.131068674089
10
-6.84411969914
20
0.134505361651
10
-6.72232011465
20
0.137942045813
10
-6.60052053007
20
0.141378726347
10
-6.47872094539
20
0.14481540301
10
-6.35692136062
20
0.148252075531
10
-6.23512177573
20
0.151688743619
10
-6.11332219073
20
0.15512540695
10
-5.9915226056
20
0.158562065171
10
-5.86972302034
20
0.161998717892
10
-5.74792343494
20
0.165435364681
10
-5.62612384937
20
0.168872005063
10
-5.50432426364
20
0.172308638507
10
-5.38252467772
20
0.175745264424
10
-5.26072509161
20
0.179181882156
10
-5.13892550527
20
0.182618490965
10
-5.0171259187
20
0.186055090024
10
-4.89532633186
20
0.189491678397
10
-4.77352674474
20
0.192928255027
10
-4.6517271573
20
0.196364818713
10
-4.52992756951
20
0.199801368082
10
-4.40812798134
20
0.203237901563
10
-4.28632839273
20
0.206674417343
10
-4.16452880363
20
0.210110913326
10
-4.04272921399
20
0.213547387068
10
-3.92092962374
20
0.216983835708
10
-3.79913003279
20
0.220420255873
10
-3.67733044105
20
0.223856643554
10
-3.55553084839
20
0.227292993958
10
-3.43373125468
20
0.230729301296
10
-3.31193165975
20
0.234165558518
10
-3.19013206338
20
0.237601756948
10
-3.0683324653
20
0.241037885785
10
-2.94653286519
20
0.244473931412
10
-2.82473326262
20
0.247909876416
10
-2.70293365704
20
0.251345698167
0
LINE
8
green_beam
10
-17.5597718944
20
0.211368348646
11
-17.6597155615
21
0.211258193809
0
LWPOLYLINE
8
green_beam_width
70
0
90
10
10
-17.5597640778
20
0.204276319921
10
-17.570868928
20
0.204262544115
10
-17.5819737782
20
0.204248767507
10
-17.5930786284
20
0.204234990097
10
-17.6041834786
20
0.204221211884
10
-17.6152883288
20
0.204207432871
10
-17.626393179
20
0.204193653058
10
-17.6374980292
20
0.204179872444
10
-17.6486028795
20
0.204166091031
10
-17.6597077297
20
0.204152308819
0
LWPOLYLINE
8
green_beam_width
70
0
90
10
10
-17.559779711
20
0.218460377371
10
-17.5708845646
20
0.218449674324
10
-17.5819894182
20
0.21843897208
10
-17.5930942718
20
0.218428270638
10
-17.6041991254
20
0.218417569997
10
-17.615303979
20
0.218406870158
10
-17.6264088326
20
0.218396171119
10
-17.6375136862
20
0.21838547288
10
-17.6486185398
20
0.21837477544
10
-17.6597233934
20
0.218364078799
0
LINE
8
green_beam
10
-2.6007028083
20
0.259597015844
11
-2.70308265989
21
0.257437928486
0
LWPOLYLINE
8
green_beam_width
70
0
90
14
10
-2.60058113162
20
0.253827336762
10
-2.6084559807
20
0.253636400474
10
-2.61633082977
20
0.253445463839
10
-2.62420567884
20
0.253254526862
10
-2.6320805279
20
0.253063589547
10
-2.63995537695
20
0.252872651897
10
-2.647830226
20
0.252681713918
10
-2.65570507504
20
0.252490775614
10
-2.66357992407
20
0.252299836988
10
-2.6714547731
20
0.252108898045
10
-2.67932962212
20
0.251917958788
10
-2.68720447113
20
0.251727019221
10
-2.69507932014
20
0.251536079349
10
-2.70295416914
20
0.251345139174
0
LWPOLYLINE
8
green_beam_width
70
0
90
14
10
-2.60082448499
20
0.265366694926
10
-2.60870038231
20
0.265225463928
10
-2.61657627963
20
0.265084233277
10
-2.62445217696
20
0.264943002968
10
-2.6323280743
20
0.264801772998
10
-2.64020397164
20
0.264660543361
10
-2.648079869
20
0.264519314054
10
-2.65595576636
20
0.264378085073
10
-2.66383166372
20
0.264236856413
10
-2.67170756109
20
0.26409562807
10
-2.67958345847
20
0.263954400041
10
-2.68745935586
20
0.263813172322
10
-2.69533525325
20
0.263671944909
10
-2.70321115065
20
0.263530717797
0
LINE
8
green_beam
10
0.0639937123356
20
23.0761773162
11
0.0639927821561
21
23.2261658347
0
LWPOLYLINE
8
green_beam_width
70
0
90
10
10
0.0126158251807
20
23.0761769976
10
0.012615722322
20
23.0928423885
10
0.0126156194618
20
23.1095077795
10
0.0126155166
20
23.1261731704
10
0.0126154137368
20
23.1428385614
10
0.0126153108721
20
23.1595039523
10
0.0126152080058
20
23.1761693432
10
0.012615105138
20
23.1928347342
10
0.0126150022687
20
23.2095001251
10
0.0126148993979
20
23.2261655161
0
LWPOLYLINE
8
green_beam_width
70
0
90
10
10
0.115371599491
20
23.0761776348
10
0.115371495643
20
23.0928430258
10
0.115371391796
20
23.1095084167
10
0.115371287951
20
23.1261738077
10
0.115371184108
20
23.1428391986
10
0.115371080266
20
23.1595045896
10
0.115370976426
20
23.1761699805
10
0.115370872587
20
23.1928353714
10
0.11537076875
20
23.2095007624
10
0.115370664914
20
23.2261661533
0
LINE
8
green_beam
10
-2.70308265989
20
0.257437928486
11
-14.7623491717
21
-0.0375058029366
0
LWPOLYLINE
8
green_beam_width
70
0
90
100
10
-2.70293365704
20
0.251345698167
10
-2.82473326262
20
0.247909876416
10
-2.94653286519
20
0.244473931412
10
-3.0683324653
20
0.241037885785
10
-3.19013206338
20
0.237601756948
10
-3.31193165975
20
0.234165558518
10
-3.43373125468
20
0.230729301296
10
-3.55553084839
20
0.227292993958
10
-3.67733044105
20
0.223856643554
10
-3.79913003279
20
0.220420255873
10
-3.92092962374
20
0.216983835708
10
-4.04272921399
20
0.213547387068
10
-4.16452880363
20
0.210110913326
10
-4.28632839273
20
0.206674417343
10
-4.40812798134
20
0.203237901563
10
-4.52992756951
20
0.199801368082
10
-4.6517271573
20
0.196364818713
10
-4.77352674474
20
0.192928255027
10
-4.89532633186
20
0.189491678397
10
-5.0171259187
20
0.186055090024
10
-5.13892550527
20
0.182618490965
10
-5.26072509161
20
0.179181882156
10
-5.38252467772
20
0.175745264424
10
-5.50432426364
20
0.172308638507
10
-5.62612384937
20
0.168872005063
10
-5.74792343494
20
0.165435364681
10
-5.86972302034
20
0.161998717892
10
-5.9915226056
20
0.158562065171
10
-6.11332219073
20
0.15512540695
10
-6.23512177573
20
0.151688743619
10
-6.35692136062
20
0.148252075531
10
-6.47872094539
20
0.14481540301
10
-6.60052053007
20
0.141378726347
10
-6.72232011465
20
0.137942045813
10
-6.84411969914
20
0.134505361651
10
-6.96591928355
20
0.131068674089
10
-7.08771886788
20
0.127631983332
10
-7.20951845214
20
0.12419528957
10
-7.33131803633
20
0.120758592981
10
-7.45311762045
20
0.117321893726
10
-7.57491720451
20
0.113885191954
10
-7.69671678852
20
0.110448487806
10
-7.81851637246
20
0.107011781409
10
-7.94031595636
20
0.103575072884
10
-8.06211554021
20
0.100138362343
10
-8.18391512401
20
0.0967016498881
10
-8.30571470776
20
0.0932649356172
10
-8.42751429148
20
0.0898282196204
10
-8.54931387515
20
0.0863915019821
10
-8.67111345879
20
0.0829547827815
10
-8.79291304239
20
0.0795180620925
10
-8.91471262595
20
0.0760813399846
10
-9.03651220948
20
0.072644616523
10
-9.15831179298
20
0.069207891769
10
-9.28011137645
20
0.0657711657801
10
-9.40191095989
20
0.0623344386106
10
-9.5237105433
20
0.0588977103117
10
-9.64551012669
20
0.0554609809314
10
-9.76730971005
20
0.0520242505154
10
-9.88910929339
20
0.0485875191065
10
-10.0109088767
20
0.0451507867455
10
-10.13270846
20
0.0417140534708
10
-10.2545080433
20
0.0382773193187
10
-10.3763076265
20
0.0348405843238
10
-10.4981072097
20
0.0314038485188
10
-10.6199067929
20
0.0279671119348
10
-10.7417063761
20
0.0245303746011
10
-10.8635059593
20
0.0210936365458
10
-10.9853055425
20
0.0176568977956
10
-11.1071051256
20
0.0142201583758
10
-11.2289047087
20
0.0107834183104
10
-11.3507042918
20
0.00734667762253
10
-11.4725038749
20
0.003909936334
10
-11.594303458
20
0.00047319446571
10
-11.7161030411
20
-0.00296354796241
10
-11.8379026241
20
-0.00640029093135
10
-11.9597022072
20
-0.00983703442294
10
-12.0815017902
20
-0.0132737784198
10
-12.2033013732
20
-0.0167105229053
10
-12.3251009562
20
-0.0201472678637
10
-12.4469005392
20
-0.0235840132796
10
-12.5687001222
20
-0.0270207591385
10
-12.6904997052
20
-0.0304575054266
10
-12.8122992881
20
-0.0338942521303
10
-12.9340988711
20
-0.037330999237
10
-13.055898454
20
-0.0407677467342
10
-13.177698037
20
-0.0442044946102
10
-13.2994976199
20
-0.0476412428537
10
-13.4212972028
20
-0.0510779914538
10
-13.5430967857
20
-0.0545147404001
10
-13.6648963686
20
-0.0579514896823
10
-13.7866959515
20
-0.061388239291
10
-13.9084955344
20
-0.0648249892169
10
-14.0302951173
20
-0.0682617394508
10
-14.1520947001
20
-0.0716984899843
10
-14.273894283
20
-0.0751352408091
10
-14.3956938659
20
-0.0785719919171
10
-14.5174934487
20
-0.0820087433006
10
-14.6392930316
20
-0.0854454949523
10
-14.7610926144
20
-0.0888822468649
0
LWPOLYLINE
8
green_beam_width
70
0
90
100
10
-2.70323166275
20
0.263530158805
10
-2.82505360286
20
0.261007521335
10
-2.94687554598
20
0.258485007118
10
-3.06869749157
20
0.255962593525
10
-3.19051943919
20
0.253440263141
10
-3.31234138851
20
0.25091800235
10
-3.43416333927
20
0.248395800352
10
-3.55598529125
20
0.245873648469
10
-3.67780724429
20
0.243351539652
10
-3.79962919824
20
0.240829468113
10
-3.92145115299
20
0.238307429057
10
-4.04327310843
20
0.235785418476
10
-4.16509506448
20
0.233263432998
10
-4.28691702108
20
0.23074146976
10
-4.40873897817
20
0.22821952632
10
-4.53056093568
20
0.225697600579
10
-4.65238289359
20
0.223175690728
10
-4.77420485184
20
0.220653795193
10
-4.89602681042
20
0.218131912603
10
-5.01784876927
20
0.215610041756
10
-5.13967072839
20
0.213088181593
10
-5.26149268775
20
0.210566331182
10
-5.38331464733
20
0.208044489693
10
-5.50513660711
20
0.20552265639
10
-5.62695856707
20
0.203000830613
10
-5.7487805272
20
0.200479011774
10
-5.87060248749
20
0.197957199343
10
-5.99242444792
20
0.195435392843
10
-6.11424640849
20
0.192913591843
10
-6.23606836918
20
0.190391795954
10
-6.35789032999
20
0.187870004821
10
-6.47971229091
20
0.185348218122
10
-6.60153425192
20
0.182826435563
10
-6.72335621304
20
0.180304656877
10
-6.84517817424
20
0.177782881818
10
-6.96700013552
20
0.17526111016
10
-7.08882209689
20
0.172739341697
10
-7.21064405832
20
0.170217576237
10
-7.33246601983
20
0.167695813606
10
-7.4542879814
20
0.165174053641
10
-7.57610994303
20
0.162652296191
10
-7.69793190472
20
0.160130541119
10
-7.81975386647
20
0.157608788295
10
-7.94157582827
20
0.155087037599
10
-8.06339779011
20
0.15256528892
10
-8.18521975201
20
0.150043542154
10
-8.30704171395
20
0.147521797204
10
-8.42886367593
20
0.145000053981
10
-8.55068563795
20
0.142478312398
10
-8.67250760001
20
0.139956572378
10
-8.7943295621
20
0.137434833846
10
-8.91615152423
20
0.134913096734
10
-9.03797348639
20
0.132391360975
10
-9.15979544859
20
0.129869626508
10
-9.28161741081
20
0.127347893276
10
-9.40343937307
20
0.124826161225
10
-9.52526133535
20
0.122304430303
10
-9.64708329766
20
0.119782700463
10
-9.76890525999
20
0.117260971658
10
-9.89072722235
20
0.114739243847
10
-10.0125491847
20
0.112217516987
10
-10.1343711471
20
0.109695791041
10
-10.2561931096
20
0.107174065972
10
-10.378015072
20
0.104652341747
10
-10.4998370345
20
0.102130618331
10
-10.6216589969
20
0.0996088956944
10
-10.7434809595
20
0.0970871738074
10
-10.865302922
20
0.094565452642
10
-10.9871248845
20
0.0920437321715
10
-11.1089468471
20
0.0895220123707
10
-11.2307688096
20
0.0870002932154
10
-11.3525907722
20
0.0844785746827
10
-11.4744127348
20
0.0819568567505
10
-11.5962346974
20
0.0794351393982
10
-11.7180566601
20
0.0769134226056
10
-11.8398786227
20
0.0743917063539
10
-11.9617005853
20
0.0718699906249
10
-12.083522548
20
0.0693482754011
10
-12.2053445107
20
0.066826560666
10
-12.3271664734
20
0.0643048464036
10
-12.4489884361
20
0.0617831325989
10
-12.5708103988
20
0.0592614192372
10
-12.6926323615
20
0.0567397063046
10
-12.8144543242
20
0.0542179937876
10
-12.936276287
20
0.0516962816736
10
-13.0580982497
20
0.0491745699502
10
-13.1799202125
20
0.0466528586056
10
-13.3017421753
20
0.0441311476285
10
-13.423564138
20
0.0416094370079
10
-13.5453861008
20
0.0390877267335
10
-13.6672080636
20
0.0365660167951
10
-13.7890300264
20
0.0340443071831
10
-13.9108519892
20
0.0315225978883
10
-14.0326739521
20
0.0290008889016
10
-14.1544959149
20
0.0264791802144
10
-14.2763178777
20
0.0239574718185
10
-14.3981398405
20
0.0214357637059
10
-14.5199618034
20
0.0189140558688
10
-14.6417837662
20
0.0163923482998
10
-14.7636057291
20
0.0138706409917
0
LINE
8
green_beam
10
0.0020989191173
20
0.0020989191173
11
0.0639937123356
21
23.0761773162
0
LWPOLYLINE
8
green_beam_width
70
0
90
10
10
-0.0492842256721
20
0.00223675123639
10
-0.0424059345176
20
2.56602323687
10
-0.035527755922
20
5.12980972281
10
-0.0286496898916
20
7.69359620905
10
-0.0217717364322
20
10.2573826956
10
-0.0148938955487
20
12.8211691824
10
-0.00801616724528
20
15.3849556696
10
-0.00113855152549
20
17.948742157
10
0.00573895160795
20
20.5125286448
10
0.0126163421531
20
23.0763151328
0
LWPOLYLINE
8
green_beam_width
70
0
90
10
10
0.0534820639067
20
0.0019610869982
10
0.0603581712452
20
2.56574757849
10
0.0672343911425
20
5.12953406969
10
0.0741107236051
20
7.69332056058
10
0.0809871686386
20
10.2571070512
10
0.087863726248
20
12.8208935415
10
0.0947403964376
20
15.3846800314
10
0.101617179211
20
17.9484665211
10
0.10849407457
20
20.5122530105
10
0.115371082518
20
23.0760394996
0
LINE
8
green_beam
10
0.0639927821561
20
23.2261658347
11
0.06399113425
21
23.3761543532
0
LWPOLYLINE
8
green_beam_width
70
0
90
10
10
0.0126148994011
20
23.2261652702
10
0.0126147171514
20
23.2428306612
10
0.012614534897
20
23.2594960521
10
0.0126143526378
20
23.276161443
10
0.0126141703739
20
23.292826834
10
0.0126139881052
20
23.3094922249
10
0.0126138058318
20
23.3261576159
10
0.0126136235536
20
23.3428230068
10
0.0126134412706
20
23.3594883977
10
0.0126132589829
20
23.3761537887
0
LWPOLYLINE
8
green_beam_width
70
0
90
10
10
0.115370664911
20
23.2261663992
10
0.115370480959
20
23.2428317901
10
0.115370297012
20
23.2594971811
10
0.11537011307
20
23.276162572
10
0.115369929133
20
23.2928279629
10
0.1153697452
20
23.3094933539
10
0.115369561272
20
23.3261587448
10
0.115369377349
20
23.3428241358
10
0.115369193431
20
23.3594895267
10
0.115369009517
20
23.3761549177
0
LINE
8
green_beam
10
-1.60095614572
20
0.28210502876
11
-2.6007028083
21
0.259597015844
0
LWPOLYLINE
8
green_beam_width
70
0
90
100
10
-1.60092933806
20
0.280914303365
10
-1.61102677908
20
0.280642082976
10
-1.62112421727
20
0.280369736894
10
-1.63122165292
20
0.280097277916
10
-1.64131908628
20
0.279824717187
10
-1.65141651757
20
0.27955206445
10
-1.66151394698
20
0.27927932826
10
-1.67161137467
20
0.279006516157
10
-1.68170880081
20
0.278733634809
10
-1.69180622553
20
0.278460690134
10
-1.70190364894
20
0.2781876874
10
-1.71200107114
20
0.277914631315
10
-1.72209849224
20
0.277641526094
10
-1.73219591232
20
0.277368375522
10
-1.74229333145
20
0.277095183012
10
-1.75239074971
20
0.276821951642
10
-1.76248816716
20
0.2765486842
10
-1.77258558385
20
0.276275383215
10
-1.78268299984
20
0.276002050986
10
-1.79278041518
20
0.27572868961
10
-1.8028778299
20
0.275455301
10
-1.81297524404
20
0.275181886905
10
-1.82307265765
20
0.274908448931
10
-1.83317007075
20
0.27463498855
10
-1.84326748338
20
0.274361507118
10
-1.85336489557
20
0.274088005884
10
-1.86346230733
20
0.273814486
10
-1.8735597187
20
0.27354094853
10
-1.88365712969
20
0.27326739446
10
-1.89375454033
20
0.272993824705
10
-1.90385195064
20
0.272720240112
10
-1.91394936063
20
0.272446641469
10
-1.92404677032
20
0.272173029511
10
-1.93414417973
20
0.271899404921
10
-1.94424158887
20
0.271625768336
10
-1.95433899775
20
0.271352120353
10
-1.96443640638
20
0.271078461529
10
-1.97453381479
20
0.270804792384
10
-1.98463122297
20
0.270531113409
10
-1.99472863094
20
0.27025742506
10
-2.00482603871
20
0.269983727769
10
-2.01492344629
20
0.26971002194
10
-2.02502085368
20
0.269436307953
10
-2.0351182609
20
0.269162586167
10
-2.04521566795
20
0.26888885692
10
-2.05531307484
20
0.26861512053
10
-2.06541048158
20
0.268341377298
10
-2.07550788817
20
0.268067627507
10
-2.08560529461
20
0.267793871428
10
-2.09570270092
20
0.267520109313
10
-2.1058001071
20
0.267246341403
10
-2.11589751316
20
0.266972567927
10
-2.12599491909
20
0.2666987891
10
-2.13609232491
20
0.266425005129
10
-2.14618973062
20
0.266151216207
10
-2.15628713622
20
0.265877422521
10
-2.16638454171
20
0.265603624246
10
-2.17648194711
20
0.26532982155
10
-2.18657935241
20
0.265056014592
10
-2.19667675762
20
0.264782203525
10
-2.20677416274
20
0.264508388492
10
-2.21687156777
20
0.264234569633
10
-2.22696897272
20
0.263960747079
10
-2.23706637759
20
0.263686920956
10
-2.24716378238
20
0.263413091383
10
-2.2572611871
20
0.263139258476
10
-2.26735859174
20
0.262865422345
10
-2.27745599632
20
0.262591583094
10
-2.28755340082
20
0.262317740825
10
-2.29765080526
20
0.262043895632
10
-2.30774820964
20
0.26177004761
10
-2.31784561396
20
0.261496196845
10
-2.32794301821
20
0.261222343423
10
-2.33804042241
20
0.260948487425
10
-2.34813782655
20
0.26067462893
10
-2.35823523063
20
0.260400768011
10
-2.36833263467
20
0.260126904741
10
-2.37843003865
20
0.259853039189
10
-2.38852744258
20
0.259579171421
10
-2.39862484647
20
0.259305301502
10
-2.4087222503
20
0.259031429493
10
-2.41881965409
20
0.258757555453
10
-2.42891705784
20
0.258483679438
10
-2.43901446154
20
0.258209801504
10
-2.4491118652
20
0.257935921704
10
-2.45920926882
20
0.257662040089
10
-2.4693066724
20
0.257388156706
10
-2.47940407595
20
0.257114271605
10
-2.48950147945
20
0.25684038483
10
-2.49959888292
20
0.256566496426
10
-2.50969628635
20
0.256292606435
10
-2.51979368974
20
0.256018714898
10
-2.52989109311
20
0.255744821854
10
-2.53998849644
20
0.255470927343
10
-2.55008589974
20
0.255197031401
10
-2.560183303
20
0.254923134063
10
-2.57028070624
20
0.254649235365
10
-2.58037810944
20
0.25437533534
10
-2.59047551262
20
0.254101434021
10
-2.60057291577
20
0.253827531438
0
LWPOLYLINE
8
green_beam_width
70
0
90
100
10
-1.60098295337
20
0.283295754155
10
-1.61108241462
20
0.283113267213
10
-1.62118187871
20
0.282930905964
10
-1.63128134533
20
0.28274865761
10
-1.64138081425
20
0.282566511007
10
-1.65148028524
20
0.282384456413
10
-1.6615797581
20
0.282202485271
10
-1.67167923268
20
0.282020590042
10
-1.68177870881
20
0.281838764058
10
-1.69187818637
20
0.281657001402
10
-1.70197766524
20
0.281475296804
10
-1.71207714531
20
0.281293645557
10
-1.72217662649
20
0.281112043447
10
-1.73227610868
20
0.280930486687
10
-1.74237559182
20
0.280748971866
10
-1.75247507584
20
0.280567495904
10
-1.76257456066
20
0.280386056014
10
-1.77267404624
20
0.280204649668
10
-1.78277353253
20
0.280023274565
10
-1.79287301947
20
0.279841928609
10
-1.80297250703
20
0.279660609888
10
-1.81307199516
20
0.279479316651
10
-1.82317148382
20
0.279298047294
10
-1.83327097299
20
0.279116800343
10
-1.84337046264
20
0.278935574443
10
-1.85346995273
20
0.278754368345
10
-1.86356944324
20
0.278573180898
10
-1.87366893414
20
0.278392011036
10
-1.88376842542
20
0.278210857774
10
-1.89386791706
20
0.278029720198
10
-1.90396740903
20
0.27784859746
10
-1.91406690131
20
0.277667488771
10
-1.92416639389
20
0.277486393397
10
-1.93426588676
20
0.277305310656
10
-1.9443653799
20
0.277124239909
10
-1.95446487329
20
0.27694318056
10
-1.96456436693
20
0.276762132053
10
-1.9746638608
20
0.276581093866
10
-1.98476335489
20
0.27640006551
10
-1.9948628492
20
0.276219046527
10
-2.0049623437
20
0.276038036486
10
-2.0150618384
20
0.275857034984
10
-2.02516133328
20
0.275676041639
10
-2.03526082833
20
0.275495056093
10
-2.04536032356
20
0.275314078008
10
-2.05545981894
20
0.275133107067
10
-2.06555931448
20
0.274952142967
10
-2.07565881017
20
0.274771185426
10
-2.085758306
20
0.274590234174
10
-2.09585780196
20
0.274409288958
10
-2.10595729805
20
0.274228349536
10
-2.11605679427
20
0.27404741568
10
-2.12615629061
20
0.273866487175
10
-2.13625578707
20
0.273685563815
10
-2.14635528364
20
0.273504645405
10
-2.15645478031
20
0.273323731759
10
-2.16655427709
20
0.273142822702
10
-2.17665377397
20
0.272961918067
10
-2.18675327094
20
0.272781017693
10
-2.19685276801
20
0.272600121429
10
-2.20695226516
20
0.27241922913
10
-2.2170517624
20
0.272238340657
10
-2.22715125973
20
0.27205745588
10
-2.23725075713
20
0.271876574672
10
-2.24735025462
20
0.271695696912
10
-2.25744975217
20
0.271514822488
10
-2.2675492498
20
0.271333951287
10
-2.2776487475
20
0.271153083206
10
-2.28774824527
20
0.270972218144
10
-2.29784774311
20
0.270791356005
10
-2.30794724101
20
0.270610496696
10
-2.31804673897
20
0.270429640129
10
-2.32814623699
20
0.270248786219
10
-2.33824573506
20
0.270067934885
10
-2.3483452332
20
0.26988708605
10
-2.35844473138
20
0.269706239637
10
-2.36854422963
20
0.269525395575
10
-2.37864372792
20
0.269344553795
10
-2.38874322626
20
0.269163714231
10
-2.39884272465
20
0.268982876819
10
-2.40894222309
20
0.268802041496
10
-2.41904172157
20
0.268621208205
10
-2.4291412201
20
0.268440376888
10
-2.43924071867
20
0.26825954749
10
-2.44934021729
20
0.268078719958
10
-2.45943971594
20
0.267897894242
10
-2.46953921464
20
0.267717070293
10
-2.47963871337
20
0.267536248063
10
-2.48973821214
20
0.267355427506
10
-2.49983771095
20
0.267174608578
10
-2.50993720979
20
0.266993791238
10
-2.52003670867
20
0.266812975444
10
-2.53013620758
20
0.266632161155
10
-2.54023570652
20
0.266451348335
10
-2.5503352055
20
0.266270536945
10
-2.56043470451
20
0.266089726951
10
-2.57053420355
20
0.265908918317
10
-2.58063370262
20
0.265728111011
10
-2.59073320171
20
0.265547304999
10
-2.60083270084
20
0.26536650025
0
LINE
8
green_beam
10
0.0639937123356
20
23.0761773162
11
0.305583675602
21
-1.92265534233
0
LWPOLYLINE
8
green_beam_width
70
0
90
10
10
0.115368868354
20
23.0766738083
10
0.142212117422
20
20.2990257343
10
0.169055498652
20
17.5213776617
10
0.195899012046
20
14.7437295903
10
0.2227426576
20
11.9660815202
10
0.249586435313
20
9.18843345132
10
0.276430345181
20
6.41078538376
10
0.3032743872
20
3.63313731748
10
0.330118561364
20
0.855489252471
10
0.356962867667
20
-1.92215881126
0
LWPOLYLINE
8
green_beam_width
70
0
90
10
10
0.0126185563171
20
23.0756808241
10
0.039461965753
20
20.2980327518
10
0.0663052430261
20
17.5203846781
10
0.0931483881365
20
14.7427366031
10
0.119991401086
20
11.9650885269
10
0.146834281877
20
9.18744044939
10
0.173677030512
20
6.40979237061
10
0.200519646997
20
3.63214429055
10
0.227362131336
20
0.854496209216
10
0.254204483537
20
-1.9231518734
0
LINE
8
green_beam
10
-14.7623491717
20
-0.0375058029366
11
0.0020989191173
21
0.0020989191173
0
LWPOLYLINE
8
green_beam_width
70
0
90
10
10
-14.7624870266
20
0.0138858201469
10
-13.1219927913
20
0.0182852185099
10
-11.4814985561
20
0.0226846629358
10
-9.84100432096
20
0.0270841534275
10
-8.20051008599
20
0.0314836899878
10
-6.56001585115
20
0.0358832726193
10
-4.91952161642
20
0.0402829013246
10
-3.27902738183
20
0.0446825761061
10
-1.63853314735
20
0.0490822969661
10
0.0019610869982
20
0.0534820639067
0
LWPOLYLINE
8
green_beam_width
70
0
90
10
10
-14.7622113169
20
-0.08889742602
10
-13.1217170876
20
-0.0844957750377
10
-11.4812228582
20
-0.0800941701183
10
-9.84072862862
20
-0.0756926112647
10
-8.20023439896
20
-0.0712910984797
10
-6.55974016916
20
-0.0668896317659
10
-4.91924593925
20
-0.0624882111259
10
-3.27875170921
20
-0.0580868365621
10
-1.63825747905
20
-0.0536855080768
10
0.0022367512364
20
-0.0492842256721
0
LINE
8
Mirrors
10
-17.4594918419
20
0.0938572515015
11
-17.5589460743
21
0.0935938525672
0
LINE
8
Mirrors
10
-17.5606990168
20
0.343590086778
11
-17.4601539505
21
0.343856374724
0
LINE
8
Mirrors
10
-17.4701539155
20
0.34382989038
11
-17.4694918068
21
0.0938307671575
0
LWPOLYLINE
8
Mirrors
70
0
90
60
10
-17.4601539505
20
0.343856374724
10
-17.4601442184
20
0.339546040555
10
-17.4601344272
20
0.335235706542
10
-17.4601245769
20
0.330925372685
10
-17.4601146676
20
0.326615038985
10
-17.4601046992
20
0.322304705441
10
-17.4600946717
20
0.317994372054
10
-17.4600845852
20
0.313684038823
10
-17.4600744395
20
0.309373705749
10
-17.4600642348
20
0.305063372831
10
-17.4600539711
20
0.300753040069
10
-17.4600436482
20
0.296442707464
10
-17.4600332663
20
0.292132375016
10
-17.4600228253
20
0.287822042724
10
-17.4600123253
20
0.283511710588
10
-17.4600017662
20
0.279201378609
10
-17.459991148
20
0.274891046786
10
-17.4599804707
20
0.27058071512
10
-17.4599697343
20
0.26627038361
10
-17.4599589389
20
0.261960052256
10
-17.4599480845
20
0.257649721059
10
-17.4599371709
20
0.253339390019
10
-17.4599261983
20
0.249029059135
10
-17.4599151666
20
0.244718728407
10
-17.4599040758
20
0.240408397836
10
-17.459892926
20
0.236098067421
10
-17.459881717
20
0.231787737163
10
-17.4598704491
20
0.227477407061
10
-17.459859122
20
0.223167077115
10
-17.4598477359
20
0.218856747327
10
-17.4598477359
20
0.218856747327
10
-17.4598362907
20
0.214546417694
10
-17.4598247864
20
0.210236088218
10
-17.459813223
20
0.205925758898
10
-17.4598016006
20
0.201615429735
10
-17.4597899191
20
0.197305100728
10
-17.4597781786
20
0.192994771878
10
-17.459766379
20
0.188684443184
10
-17.4597545202
20
0.184374114647
10
-17.4597426025
20
0.180063786266
10
-17.4597306256
20
0.175753458042
10
-17.4597185897
20
0.171443129974
10
-17.4597064947
20
0.167132802062
10
-17.4596943407
20
0.162822474307
10
-17.4596821275
20
0.158512146708
10
-17.4596698553
20
0.154201819266
10
-17.459657524
20
0.14989149198
10
-17.4596451337
20
0.145581164851
10
-17.4596326843
20
0.141270837878
10
-17.4596201758
20
0.136960511061
10
-17.4596076082
20
0.132650184401
10
-17.4595949816
20
0.128339857898
10
-17.4595822959
20
0.124029531551
10
-17.4595695511
20
0.11971920536
10
-17.4595567472
20
0.115408879326
10
-17.4595438843
20
0.111098553448
10
-17.4595309623
20
0.106788227727
10
-17.4595179813
20
0.102477902162
10
-17.4595049411
20
0.0981675767535
10
-17.4594918419
20
0.0938572515015
0
LINE
8
Mirrors
10
-17.5589460743
20
0.0935938525672
11
-17.5606990168
21
0.343590086778
0
TEXT
8
text
10
-17.5473227209
20
0.206224391393
40
0.025
1
PRM
0
LINE
8
Mirrors
10
-2.70239221198
20
0.382933936542
11
-2.6029468709
21
0.38428960905
0
LINE
8
Mirrors
10
-2.59844836666
20
0.13432770518
11
-2.6989844441
21
0.132957163385
0
LINE
8
Mirrors
10
-2.68898537318
20
0.1330934741
11
-2.69239314106
21
0.383070247257
0
LWPOLYLINE
8
Mirrors
70
0
90
60
10
-2.6989844441
20
0.132957163385
10
-2.69920597517
20
0.137264888726
10
-2.69942178705
20
0.141572692033
10
-2.69963188058
20
0.145880573294
10
-2.69983625657
20
0.1501885325
10
-2.70003491577
20
0.154496569638
10
-2.70022785893
20
0.158804684699
10
-2.70041508676
20
0.163112877674
10
-2.70059659992
20
0.167421148552
10
-2.70077239907
20
0.171729497327
10
-2.70094248482
20
0.176037923988
10
-2.70110685776
20
0.180346428528
10
-2.70126551845
20
0.184655010939
10
-2.70141846741
20
0.188963671215
10
-2.70156570513
20
0.193272409348
10
-2.7017072321
20
0.197581225332
10
-2.70184304873
20
0.201890119162
10
-2.70197315544
20
0.206199090831
10
-2.7020975526
20
0.210508140334
10
-2.70221624055
20
0.214817267667
10
-2.70232921962
20
0.219126472826
10
-2.70243649008
20
0.223435755806
10
-2.7025380522
20
0.227745116605
10
-2.7026339062
20
0.232054555219
10
-2.70272405227
20
0.236364071644
10
-2.70280849057
20
0.24067366588
10
-2.70288722126
20
0.244983337925
10
-2.70296024441
20
0.249293087776
10
-2.70302756013
20
0.253602915433
10
-2.70308916844
20
0.257912820895
10
-2.70308916844
20
0.257912820895
10
-2.70314506936
20
0.262222804163
10
-2.70319526289
20
0.266532865235
10
-2.70323974897
20
0.270843004113
10
-2.70327852752
20
0.275153220799
10
-2.70331159845
20
0.279463515292
10
-2.70333896162
20
0.283773887596
10
-2.70336061686
20
0.288084337712
10
-2.70337656398
20
0.292394865643
10
-2.70338680275
20
0.296705471392
10
-2.70339133292
20
0.301016154963
10
-2.7033901542
20
0.305326916359
10
-2.70338326628
20
0.309637755585
10
-2.70337066881
20
0.313948672646
10
-2.70335236142
20
0.318259667546
10
-2.70332834369
20
0.322570740291
10
-2.7032986152
20
0.326881890888
10
-2.70326317548
20
0.331193119342
10
-2.70322202403
20
0.33550442566
10
-2.70317516032
20
0.339815809849
10
-2.70312258381
20
0.344127271918
10
-2.7030642939
20
0.348438811873
10
-2.70300028997
20
0.352750429724
10
-2.70293057139
20
0.357062125479
10
-2.70285513747
20
0.361373899147
10
-2.7027739875
20
0.365685750739
10
-2.70268712075
20
0.369997680263
10
-2.70259453645
20
0.374309687731
10
-2.70249623381
20
0.378621773154
10
-2.70239221198
20
0.382933936542
0
LINE
8
Mirrors
10
-2.6029468709
20
0.38428960905
11
-2.59844836666
21
0.13432770518
0
TEXT
8
text
10
-2.68819297341
20
0.246127103539
40
0.025
1
PR2
0
LINE
8
Mirrors
10
0.290450727294
20
-17.2561050766
11
0.289654869495
21
-17.3555564734
0
LINE
8
Mirrors
10
0.0396541449442
20
-17.3546467203
11
0.0404587318698
21
-17.2541045207
0
LINE
8
Mirrors
10
0.0403787096336
20
-17.2641042005
11
0.290370705058
21
-17.2661047564
0
LWPOLYLINE
8
Mirrors
70
0
90
60
10
0.0404587318698
20
-17.2541045207
10
0.0447689252153
20
-17.2541406965
10
0.0490791190335
20
-17.2541768133
10
0.0533893133245
20
-17.254212871
10
0.0576995080881
20
-17.2542488696
10
0.0620097033244
20
-17.2542848092
10
0.0663198990335
20
-17.2543206897
10
0.0706300952153
20
-17.2543565111
10
0.0749402918697
20
-17.2543922734
10
0.0792504889969
20
-17.2544279767
10
0.0835606865968
20
-17.2544636209
10
0.0878708846694
20
-17.2544992061
10
0.0921810832146
20
-17.2545347321
10
0.0964912822326
20
-17.2545701991
10
0.100801481723
20
-17.2546056071
10
0.105111681687
20
-17.2546409559
10
0.109421882123
20
-17.2546762457
10
0.113732083032
20
-17.2547114764
10
0.118042284413
20
-17.2547466481
10
0.122352486267
20
-17.2547817607
10
0.126662688594
20
-17.2548168142
10
0.130972891394
20
-17.2548518086
10
0.135283094666
20
-17.254886744
10
0.139593298411
20
-17.2549216203
10
0.143903502629
20
-17.2549564375
10
0.14821370732
20
-17.2549911957
10
0.152523912483
20
-17.2550258947
10
0.156834118119
20
-17.2550605348
10
0.161144324227
20
-17.2550951157
10
0.165454530809
20
-17.2551296376
10
0.165454530809
20
-17.2551296376
10
0.169764737863
20
-17.2551641004
10
0.174074945389
20
-17.2551985041
10
0.178385153389
20
-17.2552328488
10
0.182695361861
20
-17.2552671344
10
0.187005570806
20
-17.2553013609
10
0.191315780223
20
-17.2553355284
10
0.195625990114
20
-17.2553696368
10
0.199936200477
20
-17.2554036861
10
0.204246411312
20
-17.2554376763
10
0.208556622621
20
-17.2554716075
10
0.212866834402
20
-17.2555054796
10
0.217177046655
20
-17.2555392927
10
0.221487259382
20
-17.2555730466
10
0.225797472581
20
-17.2556067415
10
0.230107686253
20
-17.2556403774
10
0.234417900398
20
-17.2556739541
10
0.238728115015
20
-17.2557074718
10
0.243038330105
20
-17.2557409304
10
0.247348545668
20
-17.25577433
10
0.251658761703
20
-17.2558076705
10
0.255968978211
20
-17.2558409519
10
0.260279195192
20
-17.2558741742
10
0.264589412646
20
-17.2559073375
10
0.268899630572
20
-17.2559404417
10
0.273209848971
20
-17.2559734868
10
0.277520067843
20
-17.2560064728
10
0.281830287187
20
-17.2560393998
10
0.286140507004
20
-17.2560722678
10
0.290450727294
20
-17.2561050766
0
LINE
8
Mirrors
10
0.289654869495
20
-17.3555564734
11
0.0396541449442
21
-17.3546467203
0
TEXT
8
text
10
0.127554618401
20
-17.3176031977
40
0.025
1
SRM
0
LINE
8
Mirrors
10
0.155925076703
20
-2.83280935391
11
0.157811533526
21
-2.73337266555
0
LINE
8
Mirrors
10
0.407787247276
20
-2.73702402995
11
0.405880099418
21
-2.83755135976
0
LINE
8
Mirrors
10
0.406069779652
20
-2.82755315885
11
0.156114756937
21
-2.822811153
0
LWPOLYLINE
8
Mirrors
70
0
90
60
10
0.405880099418
20
-2.83755135976
10
0.401567442226
20
-2.83763236332
10
0.397254893526
20
-2.8377076482
10
0.392942453302
20
-2.83777721522
10
0.388630121539
20
-2.8378410652
10
0.384317898222
20
-2.83789919889
10
0.380005783337
20
-2.83795161703
10
0.375693776871
20
-2.83799832034
10
0.37138187881
20
-2.83803930948
10
0.367070089143
20
-2.8380745851
10
0.362758407858
20
-2.83810414783
10
0.358446834944
20
-2.83812799824
10
0.35413537039
20
-2.83814613689
10
0.349824014187
20
-2.83815856432
10
0.345512766324
20
-2.838165281
10
0.341201626793
20
-2.83816628742
10
0.336890595586
20
-2.83816158401
10
0.332579672695
20
-2.83815117117
10
0.328268858113
20
-2.83813504928
10
0.323958151833
20
-2.83811321868
10
0.31964755385
20
-2.83808567969
10
0.315337064158
20
-2.83805243259
10
0.311026682751
20
-2.83801347764
10
0.306716409627
20
-2.83796881507
10
0.302406244781
20
-2.83791844507
10
0.298096188209
20
-2.8378623678
10
0.293786239911
20
-2.8378005834
10
0.289476399882
20
-2.83773309198
10
0.285166668123
20
-2.83765989361
10
0.280857044632
20
-2.83758098833
10
0.280857044632
20
-2.83758098833
10
0.276547529409
20
-2.83749637617
10
0.272238122454
20
-2.8374060571
10
0.267928823768
20
-2.83731003108
10
0.263619633352
20
-2.83720829803
10
0.259310551209
20
-2.83710085785
10
0.255001577341
20
-2.83698771041
10
0.250692711751
20
-2.83686885554
10
0.246383954443
20
-2.83674429305
10
0.242075305421
20
-2.8366140227
10
0.23776676469
20
-2.83647804425
10
0.233458332256
20
-2.8363363574
10
0.229150008123
20
-2.83618896185
10
0.2248417923
20
-2.83603585725
10
0.220533684793
20
-2.83587704322
10
0.216225685609
20
-2.83571251936
10
0.211917794758
20
-2.83554228522
10
0.207610012247
20
-2.83536634036
10
0.203302338087
20
-2.83518468426
10
0.198994772286
20
-2.83499731641
10
0.194687314857
20
-2.83480423624
10
0.19037996581
20
-2.83460544317
10
0.186072725156
20
-2.83440093659
10
0.181765592908
20
-2.83419071584
10
0.177458569078
20
-2.83397478025
10
0.173151653681
20
-2.83375312912
10
0.16884484673
20
-2.8335257617
10
0.16453814824
20
-2.83329267723
10
0.160231558225
20
-2.83305387491
10
0.155925076703
20
-2.83280935391
0
LINE
8
Mirrors
10
0.157811533526
20
-2.73337266555
11
0.407787247276
21
-2.73702402995
0
TEXT
8
text
10
0.244350989231
20
-2.79768935229
40
0.025
1
SR2
0
LINE
8
Mirrors
10
0.044562683226
20
-14.8968618507
11
0.0426762036057
21
-14.9962985386
0
LINE
8
Mirrors
10
-0.207299509307
20
-14.9926471169
11
-0.205392338402
21
-14.8921197876
0
LINE
8
Mirrors
10
-0.205582020928
20
-14.9021179884
11
0.0443730006997
21
-14.9068600516
0
LWPOLYLINE
8
Mirrors
70
0
90
60
10
-0.205392338402
20
-14.8921197876
10
-0.201083136164
20
-14.8922208972
10
-0.196773921044
20
-14.8923213278
10
-0.192464693044
20
-14.8924210796
10
-0.188155452163
20
-14.8925201523
10
-0.183846198401
20
-14.8926185461
10
-0.179536931758
20
-14.892716261
10
-0.175227652235
20
-14.8928132969
10
-0.17091835983
20
-14.8929096538
10
-0.166609054545
20
-14.8930053318
10
-0.162299736379
20
-14.8931003309
10
-0.157990405332
20
-14.893194651
10
-0.153681061405
20
-14.8932882921
10
-0.149371704597
20
-14.8933812544
10
-0.145062334908
20
-14.8934735376
10
-0.140752952338
20
-14.893565142
10
-0.136443556888
20
-14.8936560673
10
-0.132134148557
20
-14.8937463138
10
-0.127824727345
20
-14.8938358813
10
-0.123515293253
20
-14.8939247699
10
-0.11920584628
20
-14.8940129795
10
-0.114896386427
20
-14.8941005102
10
-0.110586913693
20
-14.8941873619
10
-0.106277428078
20
-14.8942735347
10
-0.101967929583
20
-14.8943590286
10
-0.0976584182072
20
-14.8944438435
10
-0.0933488939508
20
-14.8945279795
10
-0.0890393568139
20
-14.8946114366
10
-0.0847298067963
20
-14.8946942147
10
-0.0804202438982
20
-14.8947763138
10
-0.0804202438982
20
-14.8947763138
10
-0.0761106681195
20
-14.8948577341
10
-0.0718010794602
20
-14.8949384754
10
-0.0674914779204
20
-14.8950185378
10
-0.0631818634999
20
-14.8950979212
10
-0.0588722361989
20
-14.8951766257
10
-0.0545625960173
20
-14.8952546512
10
-0.0502529429551
20
-14.8953319978
10
-0.0459432770123
20
-14.8954086655
10
-0.0416335981889
20
-14.8954846543
10
-0.0373239064849
20
-14.895559964
10
-0.0330142019003
20
-14.8956345949
10
-0.028704484435
20
-14.8957085468
10
-0.0243947540891
20
-14.8957818198
10
-0.0200850108625
20
-14.8958544138
10
-0.0157752547553
20
-14.8959263289
10
-0.0114654857673
20
-14.8959975651
10
-0.00715570389872
20
-14.8960681223
10
-0.00284590914938
20
-14.8961380005
10
0.00146389848069
20
-14.8962071998
10
0.00577371899151
20
-14.8962757202
10
0.0100835523831
20
-14.8963435616
10
0.0143933986555
20
-14.8964107241
10
0.0187032578086
20
-14.8964772076
10
0.0230131298427
20
-14.8965430122
10
0.0273230147575
20
-14.8966081378
10
0.0316329125532
20
-14.8966725845
10
0.0359428232299
20
-14.8967363522
10
0.0402527467874
20
-14.8967994409
10
0.044562683226
20
-14.8968618507
0
LINE
8
Mirrors
10
0.0426762036057
20
-14.9962985386
11
-0.207299509307
21
-14.9926471169
0
TEXT
8
text
10
-0.118863240219
20
-14.9569818235
40
0.025
1
SR3
0
LINE
8
Mirrors
10
-14.7603440986
20
-0.163792162737
11
-14.8597894616
21
-0.165146223812
0
LINE
8
Mirrors
10
-14.8642839154
20
0.0848157529201
11
-14.7637478158
21
0.0861846656078
0
LINE
8
Mirrors
10
-14.7737468889
20
0.0860485169196
11
-14.7703431717
21
-0.163928311425
0
LWPOLYLINE
8
Mirrors
70
0
90
60
10
-14.7637478158
20
0.0861846656078
10
-14.7637084826
20
0.0818744567976
10
-14.7636684704
20
0.0775642572329
10
-14.7636277792
20
0.0732540669138
10
-14.763586409
20
0.0689438858403
10
-14.7635443597
20
0.0646337140122
10
-14.7635016315
20
0.0603235514297
10
-14.7634582242
20
0.0560133980927
10
-14.763414138
20
0.0517032540011
10
-14.7633693727
20
0.047393119155
10
-14.7633239284
20
0.0430829935544
10
-14.7632778051
20
0.0387728771992
10
-14.7632310028
20
0.0344627700894
10
-14.7631835215
20
0.030152672225
10
-14.7631353612
20
0.025842583606
10
-14.7630865219
20
0.0215325042324
10
-14.7630370036
20
0.0172224341042
10
-14.7629868063
20
0.0129123732213
10
-14.76293593
20
0.0086023215838
10
-14.7628843747
20
0.00429227919164
10
-14.7628321404
20
-1.77539551687e-05
10
-14.7627792271
20
-0.00432777785665
10
-14.7627256348
20
-0.00863779251279
10
-14.7626713635
20
-0.0129477979236
10
-14.7626164132
20
-0.0172577940891
10
-14.7625607839
20
-0.0215677810093
10
-14.7625044756
20
-0.0258777586842
10
-14.7624474884
20
-0.0301877271137
10
-14.7623898221
20
-0.034497686298
10
-14.7623314768
20
-0.0388076362369
10
-14.7623314768
20
-0.0388076362369
10
-14.7622724525
20
-0.0431175769305
10
-14.7622127492
20
-0.0474275083789
10
-14.762152367
20
-0.0517374305819
10
-14.7620913057
20
-0.0560473435396
10
-14.7620295654
20
-0.060357247252
10
-14.7619671462
20
-0.064667141719
10
-14.7619040479
20
-0.0689770269408
10
-14.7618402707
20
-0.0732869029172
10
-14.7617758144
20
-0.0775967696483
10
-14.7617106791
20
-0.0819066271341
10
-14.7616448649
20
-0.0862164753745
10
-14.7615783716
20
-0.0905263143695
10
-14.7615111994
20
-0.0948361441192
10
-14.7614433481
20
-0.0991459646236
10
-14.7613748179
20
-0.103455775883
10
-14.7613056086
20
-0.107765577896
10
-14.7612357203
20
-0.112075370664
10
-14.7611651531
20
-0.116385154187
10
-14.7610939068
20
-0.120694928464
10
-14.7610219815
20
-0.125004693496
10
-14.7609493772
20
-0.129314449283
10
-14.7608760939
20
-0.133624195824
10
-14.7608021316
20
-0.137933933119
10
-14.7607274903
20
-0.142243661169
10
-14.76065217
20
-0.146553379974
10
-14.7605761707
20
-0.150863089533
10
-14.7604994923
20
-0.155172789846
10
-14.760422135
20
-0.159482480914
10
-14.7603440986
20
-0.163792162737
0
LINE
8
Mirrors
10
-14.8597894616
20
-0.165146223812
11
-14.8642839154
21
0.0848157529201
0
TEXT
8
text
10
-14.8495413228
20
-0.0519844920053
40
0.025
1
PR3
0
LINE
8
Mirrors
10
0.134350288425
20
0.134350288425
11
0.21830453305
21
0.0503960438004
0
LINE
8
Mirrors
10
-0.0485989055657
20
-0.220101671285
11
-0.134350288425
21
-0.134350288425
0
LINE
8
Mirrors
10
-0.125865007051
20
-0.1428355698
11
0.1428355698
21
0.125865007051
0
LINE
8
Mirrors
10
-0.134350288425
20
-0.134350288425
11
0.134350288425
21
0.134350288425
0
LINE
8
Mirrors
10
0.21830453305
20
0.0503960438004
11
-0.0485989055657
21
-0.220101671285
0
TEXT
8
text
10
0.0124264068712
20
-0.0574264068712
40
0.03
1
BS
0
LINE
8
Mirrors
10
26.4891205797
20
-0.231015548525
11
26.3395569137
21
-0.231015548525
0
LINE
8
Mirrors
10
26.3386842456
20
0.0189844514751
11
26.4891205797
21
0.0189844514751
0
LINE
8
Mirrors
10
26.4741205797
20
0.0189844514751
11
26.4741205797
21
-0.231015548525
0
LINE
8
Mirrors
10
26.4891205797
20
0.0189844514751
11
26.4891205797
21
-0.231015548525
0
LINE
8
Mirrors
10
26.3395569137
20
-0.231015548525
11
26.3386842456
21
0.0189844514751
0
TEXT
8
text
10
26.3391205797
20
-0.124765548525
40
0.0375
1
ITMX
0
LINE
8
Mirrors
10
0.185704513134
20
23.2261658347
11
0.185704513134
21
23.0766021688
0
LINE
8
Mirrors
10
-0.0642954868665
20
23.0757295006
11
-0.0642954868665
21
23.2261658347
0
LINE
8
Mirrors
10
-0.0642954868665
20
23.2111658347
11
0.185704513134
21
23.2111658347
0
LINE
8
Mirrors
10
-0.0642954868665
20
23.2261658347
11
0.185704513134
21
23.2261658347
0
LINE
8
Mirrors
10
0.185704513134
20
23.0766021688
11
-0.0642954868665
21
23.0757295006
0
TEXT
8
text
10
-0.0142954868665
20
23.1324158347
40
0.0375
1
ITMY
0
CIRCLE
8
Vacuum
10
-17.4598228962
20
0.218856813113
40
1.0
0
CIRCLE
8
Vacuum
10
-2.70068832804
20
0.257945549963
40
1.0
0
CIRCLE
8
Vacuum
10
-14.7620459572
20
-0.0388037485645
40
1.0
0
CIRCLE
8
Vacuum
10
6.31439345256e-16
20
-1.38777878078e-17
40
1.0
0
CIRCLE
8
Vacuum
10
26.4891205797
20
-0.106015548525
40
1.0
0
CIRCLE
8
Vacuum
10
0.0607045131335
20
23.2261658347
40
1.0
0
CIRCLE
8
Vacuum
10
0.165454729582
20
-17.2551047987
40
1.0
0
CIRCLE
8
Vacuum
10
0.28090258806
20
-2.83518035683
40
1.0
0
CIRCLE
8
Vacuum
10
-0.080414827588
20
-14.8944908191
40
1.0
0
ENDSEC
0
EOF
